  0
SECTION
  2
HEADER
  9
$ACADVER
  1
AC1021
  9
$ACADMAINTVER
 70
    26
  9
$DWGCODEPAGE
  3
ANSI_932
  9
$LASTSAVEDBY
  1
nkoba
  9
$INSBASE
 10
0.0
 20
0.0
 30
0.0
  9
$EXTMIN
 10
5.075
 20
18.55
 30
0.0
  9
$EXTMAX
 10
158.0109168583703
 20
236.4
 30
0.0
  9
$LIMMIN
 10
0.0
 20
0.0
  9
$LIMMAX
 10
160.0
 20
242.0
  9
$ORTHOMODE
 70
     0
  9
$REGENMODE
 70
     1
  9
$FILLMODE
 70
     1
  9
$QTEXTMODE
 70
     0
  9
$MIRRTEXT
 70
     1
  9
$LTSCALE
 40
1.0
  9
$ATTMODE
 70
     1
  9
$TEXTSIZE
 40
0.2
  9
$TRACEWID
 40
1.0
  9
$TEXTSTYLE
  7
BIGFONT
  9
$CLAYER
  8
B
  9
$CELTYPE
  6
BYLAYER
  9
$CECOLOR
 62
   256
  9
$CELTSCALE
 40
1.0
  9
$DISPSILH
 70
     0
  9
$DIMSCALE
 40
1.0
  9
$DIMASZ
 40
2.5
  9
$DIMEXO
 40
0.625
  9
$DIMDLI
 40
3.75
  9
$DIMRND
 40
0.0
  9
$DIMDLE
 40
0.0
  9
$DIMEXE
 40
1.25
  9
$DIMTP
 40
0.0
  9
$DIMTM
 40
0.0
  9
$DIMTXT
 40
2.5
  9
$DIMCEN
 40
2.5
  9
$DIMTSZ
 40
0.0
  9
$DIMTOL
 70
     0
  9
$DIMLIM
 70
     0
  9
$DIMTIH
 70
     0
  9
$DIMTOH
 70
     0
  9
$DIMSE1
 70
     0
  9
$DIMSE2
 70
     0
  9
$DIMTAD
 70
     1
  9
$DIMZIN
 70
     8
  9
$DIMBLK
  1

  9
$DIMASO
 70
     1
  9
$DIMSHO
 70
     1
  9
$DIMPOST
  1

  9
$DIMAPOST
  1

  9
$DIMALT
 70
     0
  9
$DIMALTD
 70
     4
  9
$DIMALTF
 40
0.0394
  9
$DIMLFAC
 40
1.0
  9
$DIMTOFL
 70
     1
  9
$DIMTVP
 40
0.0
  9
$DIMTIX
 70
     0
  9
$DIMSOXD
 70
     0
  9
$DIMSAH
 70
     0
  9
$DIMBLK1
  1

  9
$DIMBLK2
  1

  9
$DIMSTYLE
  2
STANDARD
  9
$DIMCLRD
 70
     0
  9
$DIMCLRE
 70
     0
  9
$DIMCLRT
 70
     0
  9
$DIMTFAC
 40
1.0
  9
$DIMGAP
 40
0.625
  9
$DIMJUST
 70
     0
  9
$DIMSD1
 70
     0
  9
$DIMSD2
 70
     0
  9
$DIMTOLJ
 70
     1
  9
$DIMTZIN
 70
     0
  9
$DIMALTZ
 70
     0
  9
$DIMALTTZ
 70
     0
  9
$DIMUPT
 70
     0
  9
$DIMDEC
 70
     4
  9
$DIMTDEC
 70
     4
  9
$DIMALTU
 70
     8
  9
$DIMALTTD
 70
     4
  9
$DIMTXSTY
  7
STANDARD
  9
$DIMAUNIT
 70
     0
  9
$DIMADEC
 70
     0
  9
$DIMALTRND
 40
0.0
  9
$DIMAZIN
 70
     0
  9
$DIMDSEP
 70
    46
  9
$DIMATFIT
 70
     3
  9
$DIMFRAC
 70
     0
  9
$DIMLDRBLK
  1

  9
$DIMLUNIT
 70
     2
  9
$DIMLWD
 70
    -2
  9
$DIMLWE
 70
    -2
  9
$DIMTMOVE
 70
     0
  9
$DIMFXL
 40
1.0
  9
$DIMFXLON
 70
     0
  9
$DIMJOGANG
 40
0.7853981633974483
  9
$DIMTFILL
 70
     0
  9
$DIMTFILLCLR
 70
     0
  9
$DIMARCSYM
 70
     0
  9
$DIMLTYPE
  6

  9
$DIMLTEX1
  6

  9
$DIMLTEX2
  6

  9
$LUNITS
 70
     2
  9
$LUPREC
 70
     4
  9
$SKETCHINC
 40
1.0
  9
$FILLETRAD
 40
10.0
  9
$AUNITS
 70
     0
  9
$AUPREC
 70
     0
  9
$MENU
  1
acad
  9
$ELEVATION
 40
0.0
  9
$PELEVATION
 40
0.0
  9
$THICKNESS
 40
0.0
  9
$LIMCHECK
 70
     0
  9
$CHAMFERA
 40
10.0
  9
$CHAMFERB
 40
10.0
  9
$CHAMFERC
 40
20.0
  9
$CHAMFERD
 40
0.0
  9
$SKPOLY
 70
     0
  9
$TDCREATE
 40
2447852.052997998
  9
$TDUCREATE
 40
2447851.677997998
  9
$TDUPDATE
 40
2457154.584759294
  9
$TDUUPDATE
 40
2457154.209759294
  9
$TDINDWG
 40
0.0118021181
  9
$TDUSRTIMER
 40
0.0118021181
  9
$USRTIMER
 70
     1
  9
$ANGBASE
 50
0.0
  9
$ANGDIR
 70
     0
  9
$PDMODE
 70
     0
  9
$PDSIZE
 40
0.0
  9
$PLINEWID
 40
0.0
  9
$SPLFRAME
 70
     0
  9
$SPLINETYPE
 70
     6
  9
$SPLINESEGS
 70
     8
  9
$HANDSEED
  5
100000B4
  9
$SURFTAB1
 70
     6
  9
$SURFTAB2
 70
     6
  9
$SURFTYPE
 70
     6
  9
$SURFU
 70
     6
  9
$SURFV
 70
     6
  9
$UCSBASE
  2

  9
$UCSNAME
  2

  9
$UCSORG
 10
0.0
 20
0.0
 30
0.0
  9
$UCSXDIR
 10
1.0
 20
0.0
 30
0.0
  9
$UCSYDIR
 10
0.0
 20
1.0
 30
0.0
  9
$UCSORTHOREF
  2

  9
$UCSORTHOVIEW
 70
     0
  9
$UCSORGTOP
 10
0.0
 20
0.0
 30
0.0
  9
$UCSORGBOTTOM
 10
0.0
 20
0.0
 30
0.0
  9
$UCSORGLEFT
 10
0.0
 20
0.0
 30
0.0
  9
$UCSORGRIGHT
 10
0.0
 20
0.0
 30
0.0
  9
$UCSORGFRONT
 10
0.0
 20
0.0
 30
0.0
  9
$UCSORGBACK
 10
0.0
 20
0.0
 30
0.0
  9
$PUCSBASE
  2

  9
$PUCSNAME
  2

  9
$PUCSORG
 10
0.0
 20
0.0
 30
0.0
  9
$PUCSXDIR
 10
1.0
 20
0.0
 30
0.0
  9
$PUCSYDIR
 10
0.0
 20
1.0
 30
0.0
  9
$PUCSORTHOREF
  2

  9
$PUCSORTHOVIEW
 70
     0
  9
$PUCSORGTOP
 10
0.0
 20
0.0
 30
0.0
  9
$PUCSORGBOTTOM
 10
0.0
 20
0.0
 30
0.0
  9
$PUCSORGLEFT
 10
0.0
 20
0.0
 30
0.0
  9
$PUCSORGRIGHT
 10
0.0
 20
0.0
 30
0.0
  9
$PUCSORGFRONT
 10
0.0
 20
0.0
 30
0.0
  9
$PUCSORGBACK
 10
0.0
 20
0.0
 30
0.0
  9
$USERI1
 70
     0
  9
$USERI2
 70
     0
  9
$USERI3
 70
     0
  9
$USERI4
 70
     0
  9
$USERI5
 70
     0
  9
$USERR1
 40
0.0
  9
$USERR2
 40
0.0
  9
$USERR3
 40
0.0
  9
$USERR4
 40
0.0
  9
$USERR5
 40
0.0
  9
$WORLDVIEW
 70
     1
  9
$SHADEDGE
 70
     3
  9
$SHADEDIF
 70
    70
  9
$TILEMODE
 70
     1
  9
$MAXACTVP
 70
    48
  9
$PINSBASE
 10
0.0
 20
0.0
 30
0.0
  9
$PLIMCHECK
 70
     0
  9
$PEXTMIN
 10
1.000000000000000E+20
 20
1.000000000000000E+20
 30
1.000000000000000E+20
  9
$PEXTMAX
 10
-1.000000000000000E+20
 20
-1.000000000000000E+20
 30
-1.000000000000000E+20
  9
$PLIMMIN
 10
0.0
 20
0.0
  9
$PLIMMAX
 10
160.0
 20
242.0
  9
$UNITMODE
 70
     0
  9
$VISRETAIN
 70
     1
  9
$PLINEGEN
 70
     0
  9
$PSLTSCALE
 70
     1
  9
$TREEDEPTH
 70
  3020
  9
$CMLSTYLE
  2
Standard
  9
$CMLJUST
 70
     0
  9
$CMLSCALE
 40
20.0
  9
$PROXYGRAPHICS
 70
     1
  9
$MEASUREMENT
 70
     1
  9
$CELWEIGHT
370
    -1
  9
$ENDCAPS
280
     0
  9
$JOINSTYLE
280
     0
  9
$LWDISPLAY
290
     1
  9
$INSUNITS
 70
     0
  9
$HYPERLINKBASE
  1

  9
$STYLESHEET
  1

  9
$XEDIT
290
     1
  9
$CEPSNTYPE
380
     0
  9
$PSTYLEMODE
290
     1
  9
$FINGERPRINTGUID
  2
{01801163-5BC0-459E-B9C7-2188C09ED432}
  9
$VERSIONGUID
  2
{714E32E9-29E8-429B-AF53-FF258DBFFE9D}
  9
$EXTNAMES
290
     1
  9
$PSVPSCALE
 40
0.0
  9
$OLESTARTUP
290
     0
  9
$SORTENTS
280
   127
  9
$INDEXCTL
280
     0
  9
$HIDETEXT
280
     1
  9
$XCLIPFRAME
290
     0
  9
$HALOGAP
280
     0
  9
$OBSCOLOR
 70
   257
  9
$OBSLTYPE
280
     0
  9
$INTERSECTIONDISPLAY
280
     0
  9
$INTERSECTIONCOLOR
 70
   257
  9
$DIMASSOC
280
     2
  9
$PROJECTNAME
  1

  9
$CAMERADISPLAY
290
     0
  9
$LENSLENGTH
 40
50.0
  9
$CAMERAHEIGHT
 40
0.0
  9
$STEPSPERSEC
 40
2.0
  9
$STEPSIZE
 40
6.0
  9
$3DDWFPREC
 40
2.0
  9
$PSOLWIDTH
 40
0.25
  9
$PSOLHEIGHT
 40
4.0
  9
$LOFTANG1
 40
1.570796326794896
  9
$LOFTANG2
 40
1.570796326794896
  9
$LOFTMAG1
 40
0.0
  9
$LOFTMAG2
 40
0.0
  9
$LOFTPARAM
 70
     7
  9
$LOFTNORMALS
280
     1
  9
$LATITUDE
 40
37.795
  9
$LONGITUDE
 40
-122.394
  9
$NORTHDIRECTION
 40
0.0
  9
$TIMEZONE
 70
 -8000
  9
$LIGHTGLYPHDISPLAY
280
     1
  9
$TILEMODELIGHTSYNCH
280
     1
  9
$CMATERIAL
347
10000003
  9
$SOLIDHIST
280
     1
  9
$SHOWHIST
280
     1
  9
$DWFFRAME
280
     2
  9
$DGNFRAME
280
     0
  9
$REALWORLDSCALE
290
     1
  9
$INTERFERECOLOR
 62
     1
  9
$INTERFEREOBJVS
345
10000025
  9
$INTERFEREVPVS
346
10000022
  9
$CSHADOW
280
     0
  9
$SHADOWPLANELOCATION
 40
0.0
  0
ENDSEC
  0
SECTION
  2
CLASSES
  0
CLASS
  1
ACDBDICTIONARYWDFLT
  2
AcDbDictionaryWithDefault
  3
ObjectDBX Classes
 90
        0
 91
        2
280
     0
281
     0
  0
CLASS
  1
MATERIAL
  2
AcDbMaterial
  3
ObjectDBX Classes
 90
     1153
 91
        3
280
     0
281
     0
  0
CLASS
  1
VISUALSTYLE
  2
AcDbVisualStyle
  3
ObjectDBX Classes
 90
     4095
 91
       16
280
     0
281
     0
  0
CLASS
  1
TABLESTYLE
  2
AcDbTableStyle
  3
ObjectDBX Classes
 90
     4095
 91
        1
280
     0
281
     0
  0
CLASS
  1
SCALE
  2
AcDbScale
  3
ObjectDBX Classes
 90
     1153
 91
       33
280
     0
281
     0
  0
CLASS
  1
MLEADERSTYLE
  2
AcDbMLeaderStyle
  3
ACDB_MLEADERSTYLE_CLASS
 90
     4095
 91
        1
280
     0
281
     0
  0
CLASS
  1
SORTENTSTABLE
  2
AcDbSortentsTable
  3
ObjectDBX Classes
 90
        0
 91
        1
280
     0
281
     0
  0
CLASS
  1
CELLSTYLEMAP
  2
AcDbCellStyleMap
  3
ObjectDBX Classes
 90
     1152
 91
        9
280
     0
281
     0
  0
CLASS
  1
DICTIONARYVAR
  2
AcDbDictionaryVar
  3
ObjectDBX Classes
 90
        0
 91
       20
280
     0
281
     0
  0
ENDSEC
  0
SECTION
  2
TABLES
  0
TABLE
  2
VPORT
  5
A2
330
0
100
AcDbSymbolTable
 70
     1
  0
VPORT
  5
A5
330
A2
100
AcDbSymbolTableRecord
100
AcDbViewportTableRecord
  2
*ACTIVE
 70
     0
 10
0.0
 20
0.0
 11
1.0
 21
1.0
 12
57.91237342866131
 22
110.6500034181634
 13
0.0
 23
0.0
 14
10.0
 24
10.0
 15
10.0
 25
10.0
 16
0.0
 26
0.0
 36
1.0
 17
0.0
 27
0.0
 37
0.0
 40
297.719633347443
 41
1.608050847457627
 42
50.0
 43
0.0
 44
0.0
 50
0.0
 51
0.0
 71
     0
 72
   100
 73
     1
 74
     1
 75
     0
 76
     0
 77
     0
 78
     0
281
     0
 65
     1
110
0.0
120
0.0
130
0.0
111
1.0
121
0.0
131
0.0
112
0.0
122
1.0
132
0.0
 79
     0
146
0.0
348
10000021
 60
     3
 61
     5
292
     1
282
     1
141
0.0
142
0.0
 63
   250
421
  3355443
  0
ENDTAB
  0
TABLE
  2
LTYPE
  5
A8
330
0
100
AcDbSymbolTable
 70
    10
  0
LTYPE
  5
AB
330
A8
100
AcDbSymbolTableRecord
100
AcDbLinetypeTableRecord
  2
BYBLOCK
 70
     0
  3
BYBLOCK
 72
    65
 73
     0
 40
0.0
  0
LTYPE
  5
AE
330
A8
100
AcDbSymbolTableRecord
100
AcDbLinetypeTableRecord
  2
BYLAYER
 70
     0
  3
BYLAYER
 72
    65
 73
     0
 40
0.0
  0
LTYPE
  5
B1
330
A8
100
AcDbSymbolTableRecord
100
AcDbLinetypeTableRecord
  2
CONTINUOUS
 70
     0
  3
実線
 72
    65
 73
     0
 40
0.0
  0
LTYPE
  5
B4
330
A8
100
AcDbSymbolTableRecord
100
AcDbLinetypeTableRecord
  2
DASHED
 70
     0
  3
__ __ __ __ __ __ __ __ __ __ __ __ __ __ __
 72
    65
 73
     2
 40
0.75
 49
0.5
 74
     0
 49
-0.25
 74
     0
  0
LTYPE
  5
B7
330
A8
100
AcDbSymbolTableRecord
100
AcDbLinetypeTableRecord
  2
HIDDEN
 70
     0
  3
_ _ _ _ _ _ _ _ _ _ _ _ _ _ _ _ _ _ _ _ _ _ _
 72
    65
 73
     2
 40
0.375
 49
0.25
 74
     0
 49
-0.125
 74
     0
  0
LTYPE
  5
BA
330
A8
100
AcDbSymbolTableRecord
100
AcDbLinetypeTableRecord
  2
CENTER
 70
     0
  3
____ _ ____ _ ____ _ ____ _ ____ _ ____ _ ____
 72
    65
 73
     4
 40
2.0
 49
1.25
 74
     0
 49
-0.25
 74
     0
 49
0.25
 74
     0
 49
-0.25
 74
     0
  0
LTYPE
  5
BD
330
A8
100
AcDbSymbolTableRecord
100
AcDbLinetypeTableRecord
  2
PHANTOM
 70
     0
  3
_____ _ _ _____ _ _ _____ _ _ _____ _ _ ____
 72
    65
 73
     6
 40
2.5
 49
1.25
 74
     0
 49
-0.25
 74
     0
 49
0.25
 74
     0
 49
-0.25
 74
     0
 49
0.25
 74
     0
 49
-0.25
 74
     0
  0
LTYPE
  5
C0
330
A8
100
AcDbSymbolTableRecord
100
AcDbLinetypeTableRecord
  2
DOT
 70
     0
  3
...............................................
 72
    65
 73
     2
 40
0.25
 49
0.0
 74
     0
 49
-0.25
 74
     0
  0
LTYPE
  5
C3
330
A8
100
AcDbSymbolTableRecord
100
AcDbLinetypeTableRecord
  2
DASHDOT
 70
     0
  3
__ . __ . __ . __ . __ . __ . __ . __ . __ . __
 72
    65
 73
     4
 40
1.0
 49
0.5
 74
     0
 49
-0.25
 74
     0
 49
0.0
 74
     0
 49
-0.25
 74
     0
  0
LTYPE
  5
C6
330
A8
100
AcDbSymbolTableRecord
100
AcDbLinetypeTableRecord
  2
BORDER
 70
     0
  3
__ __ . __ __ . __ __ . __ __ . __ __ . __ __
 72
    65
 73
     6
 40
1.75
 49
0.5
 74
     0
 49
-0.25
 74
     0
 49
0.5
 74
     0
 49
-0.25
 74
     0
 49
0.0
 74
     0
 49
-0.25
 74
     0
  0
LTYPE
  5
C9
330
A8
100
AcDbSymbolTableRecord
100
AcDbLinetypeTableRecord
  2
DIVIDE
 70
     0
  3
__ . . __ . . __ . . __ . . __ . . __ . . __
 72
    65
 73
     6
 40
1.25
 49
0.5
 74
     0
 49
-0.25
 74
     0
 49
0.0
 74
     0
 49
-0.25
 74
     0
 49
0.0
 74
     0
 49
-0.25
 74
     0
  0
ENDTAB
  0
TABLE
  2
LAYER
  5
CC
330
0
100
AcDbSymbolTable
 70
    14
  0
LAYER
  5
CF
102
{ACAD_XDICTIONARY
360
10000065
102
}
330
CC
100
AcDbSymbolTableRecord
100
AcDbLayerTableRecord
  2
0
 70
     0
 62
     7
  6
CONTINUOUS
370
    -3
390
10000002
347
10000013
  0
LAYER
  5
D2
102
{ACAD_XDICTIONARY
360
10000067
102
}
330
CC
100
AcDbSymbolTableRecord
100
AcDbLayerTableRecord
  2
B
 70
     0
 62
     7
  6
CONTINUOUS
370
    -3
390
10000002
347
10000013
  0
LAYER
  5
D5
102
{ACAD_XDICTIONARY
360
10000069
102
}
330
CC
100
AcDbSymbolTableRecord
100
AcDbLayerTableRecord
  2
C
 70
     0
 62
     7
  6
CONTINUOUS
370
    -3
390
10000002
347
10000013
  0
LAYER
  5
D8
102
{ACAD_XDICTIONARY
360
1000006B
102
}
330
CC
100
AcDbSymbolTableRecord
100
AcDbLayerTableRecord
  2
D
 70
     0
 62
     7
  6
CONTINUOUS
370
    -3
390
10000002
347
10000013
  0
LAYER
  5
DB
102
{ACAD_XDICTIONARY
360
1000006D
102
}
330
CC
100
AcDbSymbolTableRecord
100
AcDbLayerTableRecord
  2
E
 70
     0
 62
     7
  6
CONTINUOUS
370
    -3
390
10000002
347
10000013
  0
LAYER
  5
DE
102
{ACAD_XDICTIONARY
360
1000006F
102
}
330
CC
100
AcDbSymbolTableRecord
100
AcDbLayerTableRecord
  2
F
 70
     0
 62
     7
  6
CONTINUOUS
370
    -3
390
10000002
347
10000013
  0
LAYER
  5
E1
102
{ACAD_XDICTIONARY
360
10000071
102
}
330
CC
100
AcDbSymbolTableRecord
100
AcDbLayerTableRecord
  2
G
 70
     0
 62
     7
  6
CONTINUOUS
370
    -3
390
10000002
347
10000013
  0
LAYER
  5
E4
102
{ACAD_XDICTIONARY
360
10000073
102
}
330
CC
100
AcDbSymbolTableRecord
100
AcDbLayerTableRecord
  2
H
 70
     0
 62
     7
  6
CONTINUOUS
370
    -3
390
10000002
347
10000013
  0
LAYER
  5
E7
102
{ACAD_XDICTIONARY
360
10000075
102
}
330
CC
100
AcDbSymbolTableRecord
100
AcDbLayerTableRecord
  2
I
 70
     0
 62
     7
  6
CONTINUOUS
370
    -3
390
10000002
347
10000013
  0
LAYER
  5
EA
102
{ACAD_XDICTIONARY
360
10000077
102
}
330
CC
100
AcDbSymbolTableRecord
100
AcDbLayerTableRecord
  2
J
 70
     0
 62
     7
  6
CONTINUOUS
370
    -3
390
10000002
347
10000013
  0
LAYER
  5
ED
102
{ACAD_XDICTIONARY
360
10000079
102
}
330
CC
100
AcDbSymbolTableRecord
100
AcDbLayerTableRecord
  2
K
 70
     0
 62
     7
  6
CONTINUOUS
370
    -3
390
10000002
347
10000013
  0
LAYER
  5
F0
102
{ACAD_XDICTIONARY
360
1000007B
102
}
330
CC
100
AcDbSymbolTableRecord
100
AcDbLayerTableRecord
  2
L
 70
     0
 62
     7
  6
CONTINUOUS
370
    -3
390
10000002
347
10000013
  0
LAYER
  5
F3
102
{ACAD_XDICTIONARY
360
1000007D
102
}
330
CC
100
AcDbSymbolTableRecord
100
AcDbLayerTableRecord
  2
M
 70
     0
 62
     7
  6
CONTINUOUS
370
    -3
390
10000002
347
10000013
  0
LAYER
  5
F6
102
{ACAD_XDICTIONARY
360
1000007F
102
}
330
CC
100
AcDbSymbolTableRecord
100
AcDbLayerTableRecord
  2
N
 70
     0
 62
     7
  6
CONTINUOUS
370
    -3
390
10000002
347
10000013
  0
ENDTAB
  0
TABLE
  2
STYLE
  5
F9
330
0
100
AcDbSymbolTable
 70
     2
  0
STYLE
  5
FC
330
F9
100
AcDbSymbolTableRecord
100
AcDbTextStyleTableRecord
  2
STANDARD
 70
     0
 40
0.0
 41
0.5
 50
0.0
 71
     0
 42
0.3
  3
txt
  4

  0
STYLE
  5
FF
330
F9
100
AcDbSymbolTableRecord
100
AcDbTextStyleTableRecord
  2
BIGFONT
 70
     0
 40
0.0
 41
1.0
 50
0.0
 71
     0
 42
0.2
  3

  4
bigfont
  0
ENDTAB
  0
TABLE
  2
VIEW
  5
102
330
0
100
AcDbSymbolTable
 70
     0
  0
ENDTAB
  0
TABLE
  2
UCS
  5
105
330
0
100
AcDbSymbolTable
 70
     0
  0
ENDTAB
  0
TABLE
  2
APPID
  5
108
330
0
100
AcDbSymbolTable
 70
     5
  0
APPID
  5
10B
330
108
100
AcDbSymbolTableRecord
100
AcDbRegAppTableRecord
  2
ACAD
 70
     0
  0
APPID
  5
10E
330
108
100
AcDbSymbolTableRecord
100
AcDbRegAppTableRecord
  2
CONTENTTABDATA
 70
     0
  0
APPID
  5
111
330
108
100
AcDbSymbolTableRecord
100
AcDbRegAppTableRecord
  2
CONTENTCURRENTTAB
 70
     0
  0
APPID
  5
10000052
330
108
100
AcDbSymbolTableRecord
100
AcDbRegAppTableRecord
  2
ACAD_MLEADERVER
 70
     0
  0
APPID
  5
1000005C
330
108
100
AcDbSymbolTableRecord
100
AcDbRegAppTableRecord
  2
ACAD_EXEMPT_FROM_CAD_STANDARDS
 70
     0
  0
ENDTAB
  0
TABLE
  2
DIMSTYLE
  5
114
330
0
100
AcDbSymbolTable
 70
     2
100
AcDbDimStyleTable
 71
     1
340
117
  0
DIMSTYLE
105
117
330
114
100
AcDbSymbolTableRecord
100
AcDbDimStyleTableRecord
  2
STANDARD
 70
     0
340
FC
  0
ENDTAB
  0
TABLE
  2
BLOCK_RECORD
  5
11A
330
0
100
AcDbSymbolTable
 70
     1
  0
BLOCK_RECORD
  5
11D
102
{ACAD_XDICTIONARY
360
10000063
102
}
330
11A
100
AcDbSymbolTableRecord
100
AcDbBlockTableRecord
  2
*MODEL_SPACE
340
10000054
 70
     0
280
     1
281
     0
  0
BLOCK_RECORD
  5
120
330
11A
100
AcDbSymbolTableRecord
100
AcDbBlockTableRecord
  2
*PAPER_SPACE
340
10000055
 70
     0
280
     1
281
     0
  0
ENDTAB
  0
ENDSEC
  0
SECTION
  2
BLOCKS
  0
BLOCK
  5
123
330
11D
100
AcDbEntity
  8
0
100
AcDbBlockBegin
  2
*MODEL_SPACE
 70
     0
 10
0.0
 20
0.0
 30
0.0
  3
*MODEL_SPACE
  1
 
  0
ENDBLK
  5
126
330
11D
100
AcDbEntity
  8
0
100
AcDbBlockEnd
  0
BLOCK
  5
129
330
120
100
AcDbEntity
 67
     1
  8
0
100
AcDbBlockBegin
  2
*PAPER_SPACE
 70
     0
 10
0.0
 20
0.0
 30
0.0
  3
*PAPER_SPACE
  1
 
  0
ENDBLK
  5
12C
330
120
100
AcDbEntity
 67
     1
  8
0
100
AcDbBlockEnd
  0
ENDSEC
  0
SECTION
  2
ENTITIES
  0
LWPOLYLINE
  5
12F
330
11D
100
AcDbEntity
  8
0
370
    30
100
AcDbPolyline
 90
        4
 70
     1
 43
0.0
 10
73.59999999999999
 20
235.35
 10
73.59999999999999
 20
234.4
 10
78.34999999999999
 20
234.4
 10
78.34999999999999
 20
235.35
  0
LWPOLYLINE
  5
13A
330
11D
100
AcDbEntity
  8
0
370
    20
100
AcDbPolyline
 90
        4
 70
     1
 43
0.0
 10
74.22499999999999
 20
175.075
 10
74.22499999999999
 20
171.275
 10
77.40000000000001
 20
171.275
 10
77.40000000000001
 20
175.075
  0
LWPOLYLINE
  5
145
330
11D
100
AcDbEntity
  8
0
370
    20
100
AcDbPolyline
 90
        4
 70
     1
 43
0.0
 10
74.55
 20
171.275
 10
74.55
 20
170.325
 10
77.075
 20
170.325
 10
77.075
 20
171.275
  0
LWPOLYLINE
  5
150
330
11D
100
AcDbEntity
  8
0
370
    20
100
AcDbPolyline
 90
        4
 70
     1
 43
0.0
 10
74.84999999999999
 20
175.075
 10
74.84999999999999
 20
176.025
 10
76.75
 20
176.025
 10
76.75
 20
175.075
  0
LINE
  5
15B
330
11D
100
AcDbEntity
  8
0
370
    20
100
AcDbLine
 10
73.59999999999999
 20
234.4
 30
0.0
 11
27.9
 21
127.8
 31
0.0
  0
LINE
  5
15E
330
11D
100
AcDbEntity
  8
0
370
    20
100
AcDbLine
 10
74.84999999999999
 20
234.4
 30
0.0
 11
29.8
 21
127.8
 31
0.0
  0
LINE
  5
161
330
11D
100
AcDbEntity
  8
0
370
    20
100
AcDbLine
 10
77.075
 20
234.075
 30
0.0
 11
110.075
 21
127.175
 31
0.0
  0
LINE
  5
164
330
11D
100
AcDbEntity
  8
0
370
    20
100
AcDbLine
 10
78.34999999999999
 20
234.4
 30
0.0
 11
112.6
 21
126.85
 31
0.0
  0
ELLIPSE
  5
167
330
11D
100
AcDbEntity
  8
0
370
    40
100
AcDbEllipse
 10
75.8
 20
229.325
 30
0.0
 11
0.0
 21
1.899999999999999
 31
0.0
210
0.0
220
0.0
230
0.9999999999999998
 40
0.6578949999999999
 41
0.0
 42
6.283184999999999
  0
LWPOLYLINE
  5
16A
330
11D
100
AcDbEntity
  8
0
370
    20
100
AcDbPolyline
 90
        4
 70
     1
 43
0.0
 10
76.125
 20
224.575
 10
76.125
 20
221.7
 10
77.72499999999999
 20
221.7
 10
77.72499999999999
 20
224.575
  0
HATCH
  5
175
330
11D
100
AcDbEntity
  8
0
100
AcDbHatch
 10
0.0
 20
0.0
 30
0.0
210
0.0
220
0.0
230
1.0
  2
ANSI31
 70
     0
 71
     0
 91
        1
 92
        7
 72
     0
 73
     1
 93
        4
 10
76.45
 20
221.7
 10
76.45
 20
218.85
 10
77.40000000000001
 20
218.85
 10
77.40000000000001
 20
221.7
 97
        1
330
178
 75
     0
 76
     1
 52
330.0
 41
0.2
 77
     0
 78
     1
 53
14.99999999999995
 43
0.0
 44
0.0
 45
-0.1643500936401003
 46
0.6133628996935584
 79
     0
 47
0.651316
 98
        1
 10
0.0
 20
0.0
  0
LWPOLYLINE
  5
178
330
11D
100
AcDbEntity
  8
0
370
    20
100
AcDbPolyline
 90
        4
 70
     1
 43
0.0
 10
76.45
 20
221.7
 10
76.45
 20
218.85
 10
77.40000000000001
 20
218.85
 10
77.40000000000001
 20
221.7
  0
LWPOLYLINE
  5
183
330
11D
100
AcDbEntity
  8
0
370
    20
100
AcDbPolyline
 90
        4
 70
     1
 43
0.0
 10
76.45
 20
221.7
 10
76.45
 20
218.85
 10
77.40000000000001
 20
218.85
 10
77.40000000000001
 20
221.7
  0
LWPOLYLINE
  5
18E
330
11D
100
AcDbEntity
  8
0
370
    20
100
AcDbPolyline
 90
        4
 70
     1
 43
0.0
 10
73.59999999999999
 20
157.3
 10
73.59999999999999
 20
150.65
 10
78.02500000000001
 20
150.65
 10
78.02500000000001
 20
157.3
  0
LWPOLYLINE
  5
199
330
11D
100
AcDbEntity
  8
0
370
    20
100
AcDbPolyline
 90
        4
 70
     1
 43
0.0
 10
77.72499999999999
 20
150.65
 10
77.72499999999999
 20
144.3
 10
73.9
 20
144.3
 10
73.9
 20
150.65
  0
LWPOLYLINE
  5
1A4
330
11D
100
AcDbEntity
  8
0
370
    20
100
AcDbPolyline
 90
        4
 70
     1
 43
0.0
 10
74.55
 20
144.3
 10
74.55
 20
139.225
 10
77.075
 20
139.225
 10
77.075
 20
144.3
  0
LWPOLYLINE
  5
1AF
330
11D
100
AcDbEntity
  8
0
370
    20
100
AcDbPolyline
 90
        4
 70
     1
 43
0.0
 10
77.40000000000001
 20
139.225
 10
77.40000000000001
 20
138.275
 10
74.22499999999999
 20
138.275
 10
74.22499999999999
 20
139.225
  0
LWPOLYLINE
  5
1BA
330
11D
100
AcDbEntity
  8
0
370
    20
100
AcDbPolyline
 90
        4
 70
     1
 43
0.0
 10
73.59999999999999
 20
138.275
 10
73.59999999999999
 20
136.05
 10
78.02500000000001
 20
136.05
 10
78.02500000000001
 20
138.275
  0
LWPOLYLINE
  5
1C5
330
11D
100
AcDbEntity
  8
0
370
    20
100
AcDbPolyline
 90
        4
 70
     1
 43
0.0
 10
71.675
 20
157.625
 10
71.675
 20
147.15
 10
55.825
 20
147.15
 10
55.825
 20
157.625
  0
LWPOLYLINE
  5
1D0
330
11D
100
AcDbEntity
  8
0
370
    20
100
AcDbPolyline
 90
        4
 70
     1
 43
0.0
 10
46.625
 20
144.3
 10
46.625
 20
143.35
 10
51.075
 20
143.35
 10
51.075
 20
144.3
  0
LWPOLYLINE
  5
1DB
330
11D
100
AcDbEntity
  8
0
370
    20
100
AcDbPolyline
 90
        4
 70
     1
 43
0.0
 10
71.675
 20
143.675
 10
71.675
 20
132.875
 10
68.2
 20
132.875
 10
68.2
 20
143.675
  0
LWPOLYLINE
  5
1E6
330
11D
100
AcDbEntity
  8
0
370
    20
100
AcDbPolyline
 90
        4
 70
     1
 43
0.0
 10
47.25
 20
157.625
 10
47.25
 20
144.3
 10
51.075
 20
144.3
 10
51.075
 20
157.625
  0
LWPOLYLINE
  5
1F1
330
11D
100
AcDbEntity
  8
0
370
    20
100
AcDbPolyline
 90
        4
 70
     1
 43
0.0
 10
51.075
 20
154.125
 10
51.075
 20
150.65
 10
52.65
 20
150.65
 10
52.65
 20
154.125
  0
LWPOLYLINE
  5
1FC
330
11D
100
AcDbEntity
  8
0
370
    20
100
AcDbPolyline
 90
        4
 70
     1
 43
0.0
 10
51.075
 20
147.15
 10
51.075
 20
143.675
 10
71.675
 20
143.675
 10
71.675
 20
147.15
  0
LWPOLYLINE
  5
207
330
11D
100
AcDbEntity
  8
0
370
    20
100
AcDbPolyline
 90
        4
 70
     1
 43
0.0
 10
73.275
 20
157.95
 10
73.275
 20
157.3
 10
78.34999999999999
 20
157.3
 10
78.34999999999999
 20
157.95
  0
LWPOLYLINE
  5
212
330
11D
100
AcDbEntity
  8
0
370
    20
100
AcDbPolyline
 90
        4
 70
     1
 43
0.0
 10
74.22499999999999
 20
158.9
 10
74.22499999999999
 20
157.95
 10
77.72499999999999
 20
157.95
 10
77.72499999999999
 20
158.9
  0
LWPOLYLINE
  5
21D
330
11D
100
AcDbEntity
  8
0
370
    20
100
AcDbPolyline
 90
        4
 70
     1
 43
0.0
 10
75.175
 20
170.325
 10
75.175
 20
158.9
 10
76.75
 20
158.9
 10
76.75
 20
170.325
  0
ELLIPSE
  5
228
330
11D
100
AcDbEntity
  8
0
370
    20
100
AcDbEllipse
 10
55.825
 20
152.55
 30
0.0
 11
0.0
 21
5.074999999999999
 31
0.0
210
0.0
220
0.0
230
0.9999999999999998
 40
0.62069
 41
0.0
 42
3.141592999999999
  0
ELLIPSE
  5
22B
330
11D
100
AcDbEntity
  8
0
370
    20
100
AcDbEllipse
 10
58.04999999999999
 20
162.7
 30
0.0
 11
0.0
 21
5.074999999999999
 31
0.0
210
0.0
220
0.0
230
0.9999999999999998
 40
0.62069
 41
0.0
 42
3.141592999999999
  0
LWPOLYLINE
  5
22E
330
11D
100
AcDbEntity
  8
0
370
    20
100
AcDbPolyline
 90
        4
 70
     1
 43
0.0
 10
71.675
 20
157.3
 10
71.675
 20
150.325
 10
72.95
 20
150.325
 10
72.95
 20
157.3
  0
LWPOLYLINE
  5
239
330
11D
100
AcDbEntity
  8
0
370
    20
100
AcDbPolyline
 90
        4
 70
     1
 43
0.0
 10
60.575
 20
164.6
 10
60.575
 20
161.125
 10
65.35
 20
161.125
 10
65.35
 20
164.6
  0
LWPOLYLINE
  5
244
330
11D
100
AcDbEntity
  8
0
370
    20
100
AcDbPolyline
 90
        4
 70
     1
 43
0.0
 10
67.54999999999999
 20
164.275
 10
67.54999999999999
 20
161.75
 10
69.15
 20
161.75
 10
69.15
 20
164.275
  0
LINE
  5
24F
330
11D
100
AcDbEntity
  8
0
370
    20
100
AcDbLine
 10
58.04999999999999
 20
167.775
 30
0.0
 11
58.04999999999999
 21
157.625
 31
0.0
  0
LINE
  5
252
330
11D
100
AcDbEntity
  8
0
370
    20
100
AcDbLine
 10
72.95
 20
156.675
 30
0.0
 11
73.59999999999999
 21
156.675
 31
0.0
  0
LINE
  5
255
330
11D
100
AcDbEntity
  8
0
370
    20
100
AcDbLine
 10
73.59999999999999
 20
151.275
 30
0.0
 11
72.95
 21
151.275
 31
0.0
  0
MTEXT
  5
258
330
11D
100
AcDbEntity
  8
0
100
AcDbMText
 10
84.22499999999999
 20
232.275
 30
0.0
 40
1.5
 41
35.64
 46
0.0
 71
     1
 72
     5
  1
\fＭＳ 明朝|b0|i0|c128|p17;\T1.8854;スナッチブロック
  7
BIGFONT
 73
     1
 44
1.191591
  0
MTEXT
  5
25B
330
11D
100
AcDbEntity
  8
0
100
AcDbMText
 10
85.175
 20
224.35
 30
0.0
 40
1.5
 41
49.005
 46
0.0
 71
     1
 72
     5
  1
\fＭＳ 明朝|b0|i0|c128|p17;\T1.8854;ホイスティングスイベル
  7
BIGFONT
 73
     1
 44
1.191591
  0
MTEXT
  5
25E
330
11D
100
AcDbEntity
  8
0
100
AcDbMText
 10
85.175
 20
176.45
 30
0.0
 40
1.5
 41
40.095
 46
0.0
 71
     1
 72
     5
  1
\fＭＳ 明朝|b0|i0|c128|p17;\T1.8854;ウォータースイベル
  7
BIGFONT
 73
     1
 44
1.191591
  0
MTEXT
  5
261
330
11D
100
AcDbEntity
  8
0
100
AcDbMText
 10
97.25000000000001
 20
160.9
 30
0.0
 40
1.5
 41
35.64
 46
0.0
 71
     1
 72
     5
  1
\fＭＳ 明朝|b0|i0|c128|p17;\T1.8854;デリバリーホース
  7
BIGFONT
 73
     1
 44
1.191591
  0
MTEXT
  5
264
330
11D
100
AcDbEntity
  8
0
100
AcDbMText
 10
79.47499999999999
 20
137.1
 30
0.0
 40
1.5
 41
26.73
 46
0.0
 71
     1
 72
     5
  1
\fＭＳ 明朝|b0|i0|c128|p17;\T1.8854;ロッドホルダ
  7
BIGFONT
 73
     1
 44
1.191591
  0
LINE
  5
267
330
11D
100
AcDbEntity
  8
0
370
    20
100
AcDbLine
 10
54.225
 20
143.675
 30
0.0
 11
54.225
 21
132.875
 31
0.0
  0
LWPOLYLINE
  5
26A
330
11D
100
AcDbEntity
  8
0
370
    20
100
AcDbPolyline
 90
        6
 70
     0
 43
0.0
 10
61.225
 20
132.875
 10
61.225
 20
142.4
 10
56.45
 20
142.4
 10
56.45
 20
139.85
 10
54.875
 20
139.85
 10
54.875
 20
132.875
  0
LINE
  5
279
330
11D
100
AcDbEntity
  8
0
370
    20
100
AcDbLine
 10
46.0
 20
140.5
 30
0.0
 11
46.0
 21
136.375
 31
0.0
  0
LINE
  5
27C
330
11D
100
AcDbEntity
  8
0
370
    20
100
AcDbLine
 10
46.95
 20
134.775
 30
0.0
 11
50.125
 21
134.775
 31
0.0
  0
LINE
  5
27F
330
11D
100
AcDbEntity
  8
0
370
    20
100
AcDbLine
 10
50.125
 20
142.4
 30
0.0
 11
46.95
 21
142.4
 31
0.0
  0
ELLIPSE
  5
282
330
11D
100
AcDbEntity
  8
0
370
    20
100
AcDbEllipse
 10
46.95
 20
140.5
 30
0.0
 11
0.0
 21
-1.899999999999999
 31
0.0
210
0.0
220
0.0
230
0.9999999999999998
 40
0.5
 41
3.141592999999999
 42
4.709321
  0
ELLIPSE
  5
285
330
11D
100
AcDbEntity
  8
0
370
    20
100
AcDbEllipse
 10
46.95
 20
136.675
 30
0.0
 11
0.0
 21
-1.899999999999999
 31
0.0
210
0.0
220
0.0
230
0.9999999999999998
 40
0.5
 41
4.709321
 42
6.283185307179586
  0
ELLIPSE
  5
288
330
11D
100
AcDbEntity
  8
0
370
    20
100
AcDbEllipse
 10
50.125
 20
140.5
 30
0.0
 11
0.0
 21
1.899999999999999
 31
0.0
210
0.0
220
0.0
230
0.9999999999999998
 40
0.5
 41
4.709321
 42
6.283185307179586
  0
LINE
  5
28B
330
11D
100
AcDbEntity
  8
0
370
    20
100
AcDbLine
 10
51.075
 20
137.0
 30
0.0
 11
51.075
 21
141.125
 31
0.0
  0
ELLIPSE
  5
28E
330
11D
100
AcDbEntity
  8
0
370
    20
100
AcDbEllipse
 10
50.125
 20
136.675
 30
0.0
 11
0.0
 21
1.899999999999999
 31
0.0
210
0.0
220
0.0
230
0.9999999999999998
 40
0.5
 41
3.141592999999999
 42
4.709321
  0
MTEXT
  5
291
330
11D
100
AcDbEntity
  8
0
100
AcDbMText
 10
41.975
 20
148.25
 30
0.0
 40
1.5
 41
13.365
 46
0.0
 71
     1
 72
     5
  1
\f@ＭＳ 明朝|b0|i0|c128|p17;\T1.8772;原動機
  7
BIGFONT
 11
0.0
 21
-1.0
 31
0.0
 73
     1
 44
1.191591
  0
MTEXT
  5
294
330
11D
100
AcDbEntity
  8
0
100
AcDbMText
 10
82.575
 20
161.9
 30
0.0
 40
1.5
 41
31.185
 46
0.0
 71
     1
 72
     5
  1
\f@ＭＳ 明朝|b0|i0|c128|p17;\T1.8772;スイベルヘッド
  7
BIGFONT
 11
0.0
 21
-1.0
 31
0.0
 73
     1
 44
1.191591
  0
MTEXT
  5
297
330
11D
100
AcDbEntity
  8
0
100
AcDbMText
 10
45.45
 20
123.5
 30
0.0
 40
1.5
 41
26.73
 46
0.0
 71
     1
 72
     5
  1
\f@ＭＳ 明朝|b0|i0|c128|p17;\T1.8772;オイルタンク
  7
BIGFONT
 11
0.0
 21
-1.0
 31
0.0
 73
     1
 44
1.191591
  0
LWPOLYLINE
  5
29A
330
11D
100
AcDbEntity
  8
0
370
    20
100
AcDbPolyline
 90
       14
 70
     0
 43
0.0
 10
71.675
 20
92.59999999999999
 10
71.675
 20
88.15000000000001
 10
71.675
 20
83.075
 10
71.675
 20
78.95
 10
71.675
 20
74.825
 10
71.675
 20
72.925
 10
72.325
 20
70.7
 10
72.0
 20
55.475
 10
72.025
 20
53.25
 10
72.5
 20
51.05
 10
72.825
 20
47.92499999999999
 10
73.275
 20
47.14999999999999
 10
73.275
 20
32.3
 10
73.275
 20
26.05
  0
LINE
  5
2B9
330
11D
100
AcDbEntity
  8
0
370
    30
100
AcDbLine
 10
73.9
 20
41.6
 30
0.0
 11
73.9
 21
26.35
 31
0.0
  0
LINE
  5
2BC
330
11D
100
AcDbEntity
  8
0
370
    30
100
AcDbLine
 10
77.40000000000001
 20
41.6
 30
0.0
 11
77.40000000000001
 21
26.35
 31
0.0
  0
LINE
  5
2BF
330
11D
100
AcDbEntity
  8
0
370
    30
100
AcDbLine
 10
73.59999999999999
 20
29.25
 30
0.0
 11
73.59999999999999
 21
26.375
 31
0.0
  0
LINE
  5
2C2
330
11D
100
AcDbEntity
  8
0
370
    30
100
AcDbLine
 10
77.72499999999999
 20
26.35
 30
0.0
 11
77.72499999999999
 21
29.225
 31
0.0
  0
LINE
  5
2C5
330
11D
100
AcDbEntity
  8
0
370
    20
100
AcDbLine
 10
76.45
 20
136.05
 30
0.0
 11
74.84999999999999
 21
136.05
 31
0.0
  0
LINE
  5
2C8
330
11D
100
AcDbEntity
  8
0
370
    30
100
AcDbLine
 10
73.9
 20
41.6
 30
0.0
 11
74.84999999999999
 21
41.6
 31
0.0
  0
LINE
  5
2CB
330
11D
100
AcDbEntity
  8
0
370
    30
100
AcDbLine
 10
77.40000000000001
 20
41.6
 30
0.0
 11
76.45
 21
41.6
 31
0.0
  0
ARC
  5
2CE
330
11D
100
AcDbEntity
  8
0
370
    20
100
AcDbCircle
 10
77.40000000000001
 20
175.7
 30
0.0
 40
1.25
100
AcDbArc
 50
28.0
 51
175.0
  0
ARC
  5
2D1
330
11D
100
AcDbEntity
  8
0
370
    20
100
AcDbCircle
 10
77.40000000000001
 20
175.7
 30
0.0
 40
2.2
100
AcDbArc
 50
28.0
 51
175.0
  0
LINE
  5
2D4
330
11D
100
AcDbEntity
  8
0
370
    20
100
AcDbLine
 10
74.84999999999999
 20
136.05
 30
0.0
 11
74.84999999999999
 21
130.025
 31
0.0
  0
LINE
  5
2D7
330
11D
100
AcDbEntity
  8
0
370
    20
100
AcDbLine
 10
76.45
 20
136.05
 30
0.0
 11
76.45
 21
130.025
 31
0.0
  0
ARC
  5
2DA
330
11D
100
AcDbEntity
  8
0
370
    40
100
AcDbCircle
 10
73.275
 20
130.975
 30
0.0
 40
1.25
100
AcDbArc
 50
12.0
 51
168.0
  0
LINE
  5
2DD
330
11D
100
AcDbEntity
  8
0
370
    30
100
AcDbLine
 10
72.05231549908275
 20
131.2348896135222
 30
0.0
 11
72.0
 21
130.025
 31
0.0
  0
LINE
  5
2E0
330
11D
100
AcDbEntity
  8
0
370
    30
100
AcDbLine
 10
74.49768450091726
 20
131.2348896135222
 30
0.0
 11
74.84999999999999
 21
130.025
 31
0.0
  0
POINT
  5
2E3
330
11D
100
AcDbEntity
  8
0
100
AcDbPoint
 10
73.275
 20
130.975
 30
0.0
  0
LINE
  5
2E6
330
11D
100
AcDbEntity
  8
0
370
    30
100
AcDbLine
 10
72.0
 20
130.025
 30
0.0
 11
74.84999999999999
 21
130.025
 31
0.0
  0
ARC
  5
2E9
330
11D
100
AcDbEntity
  8
0
370
    40
100
AcDbCircle
 10
77.98212719283732
 20
130.975
 30
0.0
 40
1.25
100
AcDbArc
 50
12.0
 51
168.0
  0
LINE
  5
2EC
330
11D
100
AcDbEntity
  8
0
370
    30
100
AcDbLine
 10
79.20481169375458
 20
131.2348896135222
 30
0.0
 11
79.23212719283732
 21
130.025
 31
0.0
  0
LINE
  5
2EF
330
11D
100
AcDbEntity
  8
0
370
    30
100
AcDbLine
 10
76.77085902367853
 20
131.2837546313542
 30
0.0
 11
76.45
 21
130.025
 31
0.0
  0
POINT
  5
2F2
330
11D
100
AcDbEntity
  8
0
100
AcDbPoint
 10
77.98212719283732
 20
130.975
 30
0.0
  0
LINE
  5
2F5
330
11D
100
AcDbEntity
  8
0
370
    30
100
AcDbLine
 10
79.23212719283732
 20
130.025
 30
0.0
 11
76.45
 21
130.025
 31
0.0
  0
POINT
  5
2F8
330
11D
100
AcDbEntity
  8
0
100
AcDbPoint
 10
28.225
 20
131.6
 30
0.0
  0
POINT
  5
2FB
330
11D
100
AcDbEntity
  8
0
100
AcDbPoint
 10
70.72499999999999
 20
131.6
 30
0.0
  0
CIRCLE
  5
2FE
330
11D
100
AcDbEntity
  8
0
370
    20
100
AcDbCircle
 10
69.775
 20
159.525
 30
0.0
 40
0.95
  0
LWPOLYLINE
  5
301
330
11D
100
AcDbEntity
  8
0
370
    20
100
AcDbPolyline
 90
        5
 70
     0
 43
0.0
 10
71.675
 20
157.95
 10
71.675
 20
168.1
 10
70.425
 20
168.1
 10
69.15
 20
166.5
 10
69.15
 20
161.425
  0
LWPOLYLINE
  5
30E
330
11D
100
AcDbEntity
  8
0
370
    20
100
AcDbPolyline
 90
        4
 70
     1
 43
0.0
 10
58.35
 20
160.15
 10
58.35
 20
157.625
 10
60.575
 20
157.625
 10
60.575
 20
160.15
  0
LWPOLYLINE
  5
319
330
11D
100
AcDbEntity
  8
0
370
    20
100
AcDbPolyline
 90
        4
 70
     1
 43
0.0
 10
58.35
 20
159.525
 10
58.35
 20
168.1
 10
60.575
 20
168.1
 10
60.575
 20
159.525
  0
LWPOLYLINE
  5
324
330
11D
100
AcDbEntity
  8
0
370
    20
100
AcDbPolyline
 90
        4
 70
     1
 43
0.0
 10
59.0
 20
171.575
 10
59.0
 20
160.15
 10
59.625
 20
160.15
 10
59.625
 20
171.575
  0
LWPOLYLINE
  5
32F
330
11D
100
AcDbEntity
  8
0
370
    20
100
AcDbPolyline
 90
        4
 70
     1
 43
0.0
 10
65.35
 20
160.15
 10
65.35
 20
157.625
 10
67.54999999999999
 20
157.625
 10
67.54999999999999
 20
160.15
  0
LWPOLYLINE
  5
33A
330
11D
100
AcDbEntity
  8
0
370
    20
100
AcDbPolyline
 90
        4
 70
     1
 43
0.0
 10
65.35
 20
159.525
 10
65.35
 20
168.1
 10
67.54999999999999
 20
168.1
 10
67.54999999999999
 20
159.525
  0
LWPOLYLINE
  5
345
330
11D
100
AcDbEntity
  8
0
370
    20
100
AcDbPolyline
 90
        4
 70
     1
 43
0.0
 10
66.29999999999999
 20
171.575
 10
66.29999999999999
 20
160.15
 10
66.92499999999999
 20
160.15
 10
66.92499999999999
 20
171.575
  0
POINT
  5
350
330
11D
100
AcDbEntity
  8
0
100
AcDbPoint
 10
59.325
 20
171.9
 30
0.0
  0
POINT
  5
353
330
11D
100
AcDbEntity
  8
0
100
AcDbPoint
 10
66.6
 20
171.9
 30
0.0
  0
ARC
  5
356
330
11D
100
AcDbEntity
  8
0
370
    20
100
AcDbCircle
 10
69.775
 20
159.525
 30
0.0
 40
1.9
100
AcDbArc
 50
360.0
 51
168.0
  0
LINE
  5
359
330
11D
100
AcDbEntity
  8
0
370
    20
100
AcDbLine
 10
67.875
 20
159.85
 30
0.0
 11
67.875
 21
157.625
 31
0.0
  0
LINE
  5
35C
330
11D
100
AcDbEntity
  8
0
  6
DOT
 62
     7
370
    20
100
AcDbLine
 10
60.575
 20
165.55
 30
0.0
 11
65.35
 21
165.55
 31
0.0
  0
LINE
  5
35F
330
11D
100
AcDbEntity
  8
0
  6
DOT
 62
     7
370
    20
100
AcDbLine
 10
60.575
 20
160.15
 30
0.0
 11
65.35
 21
160.15
 31
0.0
  0
LINE
  5
362
330
11D
100
AcDbEntity
  8
0
370
    20
100
AcDbLine
 10
61.225
 20
165.55
 30
0.0
 11
60.575
 21
162.7
 31
0.0
  0
LINE
  5
365
330
11D
100
AcDbEntity
  8
0
370
    20
100
AcDbLine
 10
60.575
 20
160.15
 30
0.0
 11
61.85
 21
165.55
 31
0.0
  0
LINE
  5
368
330
11D
100
AcDbEntity
  8
0
370
    20
100
AcDbLine
 10
61.225
 20
160.15
 30
0.0
 11
62.475
 21
165.55
 31
0.0
  0
LINE
  5
36B
330
11D
100
AcDbEntity
  8
0
370
    20
100
AcDbLine
 10
61.85
 20
160.15
 30
0.0
 11
63.125
 21
165.55
 31
0.0
  0
LINE
  5
36E
330
11D
100
AcDbEntity
  8
0
370
    20
100
AcDbLine
 10
62.475
 20
160.15
 30
0.0
 11
63.75
 21
165.55
 31
0.0
  0
LINE
  5
371
330
11D
100
AcDbEntity
  8
0
370
    20
100
AcDbLine
 10
63.125
 20
160.15
 30
0.0
 11
64.40000000000001
 21
165.55
 31
0.0
  0
LINE
  5
374
330
11D
100
AcDbEntity
  8
0
370
    20
100
AcDbLine
 10
63.75
 20
160.15
 30
0.0
 11
65.02500000000001
 21
165.55
 31
0.0
  0
LINE
  5
377
330
11D
100
AcDbEntity
  8
0
370
    20
100
AcDbLine
 10
65.02500000000001
 20
163.025
 30
0.0
 11
64.40000000000001
 21
160.15
 31
0.0
  0
LWPOLYLINE
  5
37D
330
11D
100
AcDbEntity
  8
0
370
    30
100
AcDbPolyline
 90
        4
 70
     1
 43
0.0
 10
75.175
 20
236.3
 10
75.175
 20
235.35
 10
76.75
 20
235.35
 10
76.75
 20
236.3
  0
ARC
  5
388
330
11D
100
AcDbEntity
  8
0
370
    40
100
AcDbCircle
 10
75.8078508916421
 20
232.8170299004513
 30
0.0
 40
0.9580022693756868
100
AcDbArc
 50
181.0185704662897
 51
90.46954793948838
  0
LINE
  5
38B
330
11D
100
AcDbEntity
  8
0
370
    30
100
AcDbLine
 10
75.8
 20
233.775
 30
0.0
 11
75.8
 21
234.725
 31
0.0
  0
LWPOLYLINE
  5
38E
330
11D
100
AcDbEntity
  8
0
370
    20
100
AcDbPolyline
 90
        6
 70
     0
 43
0.0
 10
75.8
 20
230.6
 10
76.45
 20
230.6
 10
75.8
 20
230.6
 10
75.175
 20
229.65
 10
75.5
 20
228.375
 10
76.125
 20
228.05
  0
LINE
  5
39D
330
11D
100
AcDbEntity
  8
0
370
    30
100
AcDbLine
 10
75.8
 20
232.5
 30
0.0
 11
75.8
 21
230.9
 31
0.0
  0
LINE
  5
3A0
330
11D
100
AcDbEntity
  8
0
  6
DASHED
 62
     7
370
    30
100
AcDbLine
 10
76.75
 20
228.05
 30
0.0
 11
76.75
 21
225.525
 31
0.0
  0
MTEXT
  5
3A3
330
11D
100
AcDbEntity
  8
0
100
AcDbMText
 10
43.0
 20
83.49999999999999
 30
0.0
 40
1.5
 41
31.185
 46
0.0
 71
     1
 72
     5
  1
\fＭＳ 明朝|b0|i0|c128|p17;\T1.8854;ドライブパイプ
  7
BIGFONT
 73
     1
 44
1.191591
  0
MTEXT
  5
3A6
330
11D
100
AcDbEntity
  8
0
100
AcDbMText
 10
85.82500000000001
 20
62.225
 30
0.0
 40
1.5
 41
22.275
 46
0.0
 71
     1
 72
     5
  1
\fＭＳ 明朝|b0|i0|c128|p17;\T1.8854;ケーシング
  7
BIGFONT
 73
     1
 44
1.191591
  0
MTEXT
  5
3A9
330
11D
100
AcDbEntity
  8
0
100
AcDbMText
 10
83.59999999999999
 20
53.025
 30
0.0
 40
1.5
 41
35.64
 46
0.0
 71
     1
 72
     5
  1
\fＭＳ 明朝|b0|i0|c128|p17;\T1.8854;ボーリングロッド
  7
BIGFONT
 73
     1
 44
1.191591
  0
MTEXT
  5
3AC
330
11D
100
AcDbEntity
  8
0
100
AcDbMText
 10
82.65
 20
42.0
 30
0.0
 40
1.5
 41
26.73
 46
0.0
 71
     1
 72
     5
  1
\fＭＳ 明朝|b0|i0|c128|p17;\T1.8854;コアチューブ
  7
BIGFONT
 73
     1
 44
1.191591
  0
MTEXT
  5
3AF
330
11D
100
AcDbEntity
  8
0
100
AcDbMText
 10
82.65
 20
28.4
 30
0.0
 40
1.5
 41
31.185
 46
0.0
 71
     1
 72
     5
  1
\fＭＳ 明朝|b0|i0|c128|p17;\T1.8854;メタルクラウン
  7
BIGFONT
 73
     1
 44
1.191591
  0
LWPOLYLINE
  5
3B2
330
11D
100
AcDbEntity
  8
0
370
    30
100
AcDbPolyline
 90
        3
 70
     0
 43
0.0
 10
72.325
 20
51.625
 10
62.475
 20
57.65
 10
41.67499999999999
 20
71.17499999999999
  0
MTEXT
  5
3BB
330
11D
100
AcDbEntity
  8
0
100
AcDbMText
 10
82.65
 20
35.45
 30
0.0
 40
1.5
 41
8.91
 46
0.0
 71
     1
 72
     5
  1
\fＭＳ 明朝|b0|i0|c128|p17;\T1.8854;コア
  7
BIGFONT
 73
     1
 44
1.191591
  0
LINE
  5
3BE
330
11D
100
AcDbEntity
  8
0
370
    30
100
AcDbLine
 10
45.67499999999999
 20
140.8
 30
0.0
 11
45.67499999999999
 21
136.05
 31
0.0
  0
LINE
  5
3C1
330
11D
100
AcDbEntity
  8
0
370
    30
100
AcDbLine
 10
48.2
 20
142.475
 30
0.0
 11
48.2
 21
143.35
 31
0.0
  0
LINE
  5
3C4
330
11D
100
AcDbEntity
  8
0
370
    30
100
AcDbLine
 10
48.825
 20
142.475
 30
0.0
 11
48.85
 21
143.35
 31
0.0
  0
LINE
  5
3C7
330
11D
100
AcDbEntity
  8
0
370
    30
100
AcDbLine
 10
49.45
 20
142.475
 30
0.0
 11
49.475
 21
143.35
 31
0.0
  0
LINE
  5
3CA
330
11D
100
AcDbEntity
  8
0
370
    60
100
AcDbLine
 10
51.075
 20
138.6
 30
0.0
 11
54.875
 21
138.6
 31
0.0
  0
LINE
  5
3CD
330
11D
100
AcDbEntity
  8
0
370
    20
100
AcDbLine
 10
54.875
 20
139.55
 30
0.0
 11
51.075
 21
139.55
 31
0.0
  0
LINE
  5
3D0
330
11D
100
AcDbEntity
  8
0
370
    20
100
AcDbLine
 10
51.075
 20
137.625
 30
0.0
 11
54.875
 21
137.625
 31
0.0
  0
LINE
  5
3D3
330
11D
100
AcDbEntity
  8
0
370
    20
100
AcDbLine
 10
56.45
 20
139.85
 30
0.0
 11
58.04999999999999
 21
139.85
 31
0.0
  0
LINE
  5
3D6
330
11D
100
AcDbEntity
  8
0
370
    20
100
AcDbLine
 10
58.04999999999999
 20
139.85
 30
0.0
 11
58.04999999999999
 21
132.875
 31
0.0
  0
MTEXT
  5
3D9
330
11D
100
AcDbEntity
  8
0
100
AcDbMText
 10
49.125
 20
230.125
 30
0.0
 40
1.5
 41
22.275
 46
0.0
 71
     1
 72
     5
  1
\fＭＳ 明朝|b0|i0|c128|p17;\H1.8563;\T1.8854;三脚やぐ\T2.7226;ら
  7
BIGFONT
 73
     1
 44
1.137232999999999
  0
LWPOLYLINE
  5
3DC
330
11D
100
AcDbEntity
  8
0
370
    20
100
AcDbPolyline
 90
        4
 70
     1
 43
0.0
 10
76.45
 20
225.2
 10
76.45
 20
224.575
 10
77.40000000000001
 20
224.575
 10
77.40000000000001
 20
225.2
  0
MTEXT
  5
3E7
330
11D
100
AcDbEntity
  8
0
100
AcDbMText
 10
52.825
 20
176.75
 30
0.0
 40
1.5
 41
13.365
 46
0.0
 71
     1
 72
     5
  1
\fＭＳ 明朝|b0|i0|c128|p17;\T1.8854;巻上機
  7
BIGFONT
 73
     1
 44
1.191591
  0
LWPOLYLINE
  5
3EA
330
11D
100
AcDbEntity
  8
0
370
    20
100
AcDbPolyline
 90
        3
 70
     0
 43
0.0
 10
34.575
 20
124.625
 10
48.85
 20
137.95
 10
46.29999999999999
 20
136.375
  0
LWPOLYLINE
  5
3F3
330
11D
100
AcDbEntity
  8
0
370
    20
100
AcDbPolyline
 90
        3
 70
     0
 43
0.0
 10
44.725
 20
124.625
 10
59.625
 20
137.325
 10
56.45
 20
135.725
  0
LWPOLYLINE
  5
3FC
330
11D
100
AcDbEntity
  8
0
370
    20
100
AcDbPolyline
 90
        3
 70
     0
 43
0.0
 10
65.35
 20
227.425
 10
69.775
 20
225.825
 10
67.875
 20
227.425
  0
LWPOLYLINE
  5
405
330
11D
100
AcDbEntity
  8
0
370
    20
100
AcDbPolyline
 90
        3
 70
     0
 43
0.0
 10
83.1
 20
230.9
 10
77.075
 20
229.65
 10
79.625
 20
230.9
  0
LWPOLYLINE
  5
40E
330
11D
100
AcDbEntity
  8
0
370
    20
100
AcDbPolyline
 90
        3
 70
     0
 43
0.0
 10
83.75
 20
223.3
 10
77.72499999999999
 20
222.35
 10
80.575
 20
223.6
  0
LWPOLYLINE
  5
417
330
11D
100
AcDbEntity
  8
0
370
    20
100
AcDbPolyline
 90
        3
 70
     0
 43
0.0
 10
84.375
 20
174.75
 10
77.40000000000001
 20
172.225
 10
79.625
 20
173.8
  0
LWPOLYLINE
  5
420
330
11D
100
AcDbEntity
  8
0
370
    20
100
AcDbPolyline
 90
        3
 70
     0
 43
0.0
 10
95.8
 20
159.2
 10
89.775
 20
155.725
 10
92.0
 20
157.625
  0
LWPOLYLINE
  5
429
330
11D
100
AcDbEntity
  8
0
370
    20
100
AcDbPolyline
 90
        3
 70
     0
 43
0.0
 10
78.93212719283733
 20
134.775
 10
78.28212719283733
 20
131.925
 10
79.23212719283732
 20
132.875
  0
LWPOLYLINE
  5
432
330
11D
100
AcDbEntity
  8
0
370
    20
100
AcDbPolyline
 90
        3
 70
     0
 43
0.0
 10
67.25
 20
82.125
 10
72.95
 20
82.42499999999999
 10
70.425
 20
83.075
  0
LWPOLYLINE
  5
43B
330
11D
100
AcDbEntity
  8
0
370
    20
100
AcDbPolyline
 90
        3
 70
     0
 43
0.0
 10
82.475
 20
51.35
 10
76.45
 20
50.7
 10
79.29999999999999
 20
51.65
  0
LWPOLYLINE
  5
444
330
11D
100
AcDbEntity
  8
0
370
    20
100
AcDbPolyline
 90
        3
 70
     0
 43
0.0
 10
81.52500000000001
 20
40.3
 10
77.40000000000001
 20
39.05
 10
79.625
 20
40.625
  0
LWPOLYLINE
  5
44D
330
11D
100
AcDbEntity
  8
0
370
    20
100
AcDbPolyline
 90
        3
 70
     0
 43
0.0
 10
81.85
 20
33.425
 10
75.5
 20
31.225
 10
77.075
 20
32.8
  0
MTEXT
  5
456
330
11D
100
AcDbEntity
  8
0
100
AcDbMText
 10
57.075
 20
155.7
 30
0.0
 40
1.5
 41
14.6
 46
0.0
 71
     1
 72
     5
  1
\fＭＳ 明朝|b0|i0|c128|p17;\T1.8772;変速装置操縦装置
  7
BIGFONT
 73
     1
 44
1.305811999999999
  0
LINE
  5
459
330
11D
100
AcDbEntity
  8
0
370
    30
100
AcDbLine
 10
72.325
 20
71.025
 30
0.0
 11
72.325
 21
93.22499999999999
 31
0.0
  0
LWPOLYLINE
  5
45C
330
11D
100
AcDbEntity
  8
0
370
    20
100
AcDbPolyline
 90
       13
 70
     0
 43
0.0
 10
81.52500000000001
 20
87.5
 10
79.625
 20
87.825
 10
79.29999999999999
 20
78.3
 10
79.625
 20
72.59999999999999
 10
78.97499999999999
 20
71.325
 10
78.97499999999999
 20
68.15000000000001
 10
78.67499999999999
 20
58.65
 10
78.97499999999999
 20
51.975
 10
78.59999999999999
 20
49.5
 10
78.275
 20
47.92499999999999
 10
78.275
 20
47.77499999999999
 10
78.34999999999999
 20
32.95
 10
78.275
 20
26.225
  0
LWPOLYLINE
  5
479
330
11D
100
AcDbEntity
  8
0
370
    20
100
AcDbPolyline
 90
        3
 70
     0
 43
0.0
 10
13.625
 20
130.65
 10
13.625
 20
124.625
 10
13.625
 20
117.975
  0
LWPOLYLINE
  5
482
330
11D
100
AcDbEntity
  8
0
370
    20
100
AcDbPolyline
 90
        3
 70
     0
 43
0.0
 10
15.225
 20
130.65
 10
15.225
 20
124.625
 10
15.225
 20
117.975
  0
LINE
  5
48B
330
11D
100
AcDbEntity
  8
0
370
    20
100
AcDbLine
 10
13.625
 20
130.65
 30
0.0
 11
15.225
 21
130.65
 31
0.0
  0
LINE
  5
48E
330
11D
100
AcDbEntity
  8
0
370
    20
100
AcDbLine
 10
13.625
 20
117.975
 30
0.0
 11
15.225
 21
117.975
 31
0.0
  0
LWPOLYLINE
  5
491
330
11D
100
AcDbEntity
  8
0
370
    20
100
AcDbPolyline
 90
        3
 70
     0
 43
0.0
 10
50.125
 20
131.3
 10
50.125
 20
115.425
 10
50.125
 20
98.3
  0
LWPOLYLINE
  5
49A
330
11D
100
AcDbEntity
  8
0
370
    20
100
AcDbPolyline
 90
        3
 70
     0
 43
0.0
 10
51.7
 20
131.3
 10
51.7
 20
115.425
 10
51.7
 20
98.3
  0
LINE
  5
4A3
330
11D
100
AcDbEntity
  8
0
370
    20
100
AcDbLine
 10
50.125
 20
131.3
 30
0.0
 11
51.7
 21
131.3
 31
0.0
  0
LINE
  5
4A6
330
11D
100
AcDbEntity
  8
0
370
    20
100
AcDbLine
 10
50.125
 20
98.3
 30
0.0
 11
51.7
 21
98.3
 31
0.0
  0
HATCH
  5
4A9
330
11D
100
AcDbEntity
  8
0
100
AcDbHatch
 10
0.0
 20
0.0
 30
0.0
210
0.0
220
0.0
230
1.0
  2
ANSI37
 70
     0
 71
     0
 91
        1
 92
        7
 72
     0
 73
     1
 93
       10
 10
15.85
 20
126.225
 10
15.85
 20
125.9
 10
14.9
 20
124.95
 10
13.625
 20
124.95
 10
12.675
 20
125.9
 10
12.675
 20
127.175
 10
13.625
 20
128.125
 10
14.9
 20
128.125
 10
15.85
 20
127.175
 10
15.85
 20
126.525
 97
        1
330
4AC
 75
     0
 76
     1
 52
0.0
 41
0.25
 77
     0
 78
     2
 53
45.0
 43
0.0
 44
0.0
 45
-0.5612660075668221
 46
0.5612660075668221
 79
     0
 53
135.0
 43
0.0
 44
0.0
 45
-0.5612660075668221
 46
-0.5612660075668221
 79
     0
 47
0.651316
 98
        1
 10
0.0
 20
0.0
  0
LWPOLYLINE
  5
4AC
330
11D
100
AcDbEntity
  8
0
370
    20
100
AcDbPolyline
 90
       10
 70
     1
 43
0.0
 10
15.85
 20
126.225
 10
15.85
 20
125.9
 10
14.9
 20
124.95
 10
13.625
 20
124.95
 10
12.675
 20
125.9
 10
12.675
 20
127.175
 10
13.625
 20
128.125
 10
14.9
 20
128.125
 10
15.85
 20
127.175
 10
15.85
 20
126.525
  0
CIRCLE
  5
4C3
330
11D
100
AcDbEntity
  8
0
370
    20
100
AcDbCircle
 10
14.275
 20
126.525
 30
0.0
 40
1.575
  0
HATCH
  5
4C6
330
11D
100
AcDbEntity
  8
0
100
AcDbHatch
 10
0.0
 20
0.0
 30
0.0
210
0.0
220
0.0
230
1.0
  2
ANSI37
 70
     0
 71
     0
 91
        1
 92
        7
 72
     0
 73
     1
 93
       10
 10
70.09999999999999
 20
126.85
 10
70.09999999999999
 20
126.525
 10
69.15
 20
125.575
 10
67.875
 20
125.575
 10
66.92499999999999
 20
126.525
 10
66.92499999999999
 20
127.8
 10
67.875
 20
128.75
 10
69.15
 20
128.75
 10
70.09999999999999
 20
127.8
 10
70.09999999999999
 20
127.175
 97
        1
330
4C9
 75
     0
 76
     1
 52
0.0
 41
0.25
 77
     0
 78
     2
 53
45.0
 43
0.0
 44
0.0
 45
-0.5612660075668221
 46
0.5612660075668221
 79
     0
 53
135.0
 43
0.0
 44
0.0
 45
-0.5612660075668221
 46
-0.5612660075668221
 79
     0
 47
0.651316
 98
        1
 10
0.0
 20
0.0
  0
LWPOLYLINE
  5
4C9
330
11D
100
AcDbEntity
  8
0
370
    20
100
AcDbPolyline
 90
       10
 70
     1
 43
0.0
 10
70.09999999999999
 20
126.85
 10
70.09999999999999
 20
126.525
 10
69.15
 20
125.575
 10
67.875
 20
125.575
 10
66.92499999999999
 20
126.525
 10
66.92499999999999
 20
127.8
 10
67.875
 20
128.75
 10
69.15
 20
128.75
 10
70.09999999999999
 20
127.8
 10
70.09999999999999
 20
127.175
  0
CIRCLE
  5
4E0
330
11D
100
AcDbEntity
  8
0
370
    20
100
AcDbCircle
 10
68.525
 20
127.175
 30
0.0
 40
1.575
  0
HATCH
  5
4E3
330
11D
100
AcDbEntity
  8
0
100
AcDbHatch
 10
0.0
 20
0.0
 30
0.0
210
0.0
220
0.0
230
1.0
  2
ANSI37
 70
     0
 71
     0
 91
        1
 92
        7
 72
     0
 73
     1
 93
       10
 10
85.0
 20
126.85
 10
85.0
 20
126.525
 10
84.04999999999999
 20
125.575
 10
82.79999999999999
 20
125.575
 10
81.85
 20
126.525
 10
81.85
 20
127.8
 10
82.79999999999999
 20
128.75
 10
84.04999999999999
 20
128.75
 10
85.0
 20
127.8
 10
85.0
 20
127.175
 97
        1
330
4E6
 75
     0
 76
     1
 52
0.0
 41
0.25
 77
     0
 78
     2
 53
45.0
 43
0.0
 44
0.0
 45
-0.5612660075668221
 46
0.5612660075668221
 79
     0
 53
135.0
 43
0.0
 44
0.0
 45
-0.5612660075668221
 46
-0.5612660075668221
 79
     0
 47
0.651316
 98
        1
 10
0.0
 20
0.0
  0
LWPOLYLINE
  5
4E6
330
11D
100
AcDbEntity
  8
0
370
    20
100
AcDbPolyline
 90
       10
 70
     1
 43
0.0
 10
85.0
 20
126.85
 10
85.0
 20
126.525
 10
84.04999999999999
 20
125.575
 10
82.79999999999999
 20
125.575
 10
81.85
 20
126.525
 10
81.85
 20
127.8
 10
82.79999999999999
 20
128.75
 10
84.04999999999999
 20
128.75
 10
85.0
 20
127.8
 10
85.0
 20
127.175
  0
CIRCLE
  5
4FD
330
11D
100
AcDbEntity
  8
0
370
    20
100
AcDbCircle
 10
83.42499999999999
 20
127.175
 30
0.0
 40
1.575
  0
LINE
  5
500
330
11D
100
AcDbEntity
  8
0
370
    20
100
AcDbLine
 10
74.84999999999999
 20
77.34999999999999
 30
0.0
 11
74.84999999999999
 21
41.7
 31
0.0
  0
LINE
  5
503
330
11D
100
AcDbEntity
  8
0
370
    20
100
AcDbLine
 10
86.27500000000001
 20
130.025
 30
0.0
 11
86.27500000000001
 21
127.8
 31
0.0
  0
LINE
  5
506
330
11D
100
AcDbEntity
  8
0
370
    20
100
AcDbLine
 10
19.975
 20
127.8
 30
0.0
 11
19.975
 21
130.025
 31
0.0
  0
LINE
  5
509
330
11D
100
AcDbEntity
  8
0
370
    20
100
AcDbLine
 10
74.84999999999999
 20
130.025
 30
0.0
 11
75.8
 21
130.025
 31
0.0
  0
LINE
  5
50C
330
11D
100
AcDbEntity
  8
0
370
    20
100
AcDbLine
 10
19.975
 20
130.025
 30
0.0
 11
40.27499999999999
 21
130.025
 31
0.0
  0
LINE
  5
50F
330
11D
100
AcDbEntity
  8
0
370
    20
100
AcDbLine
 10
69.47499999999999
 20
130.025
 30
0.0
 11
74.84999999999999
 21
130.025
 31
0.0
  0
LINE
  5
512
330
11D
100
AcDbEntity
  8
0
370
    20
100
AcDbLine
 10
75.8
 20
130.025
 30
0.0
 11
83.1
 21
130.025
 31
0.0
  0
LINE
  5
515
330
11D
100
AcDbEntity
  8
0
370
    20
100
AcDbLine
 10
84.7
 20
130.025
 30
0.0
 11
86.27500000000001
 21
130.025
 31
0.0
  0
LINE
  5
518
330
11D
100
AcDbEntity
  8
0
370
    20
100
AcDbLine
 10
112.3
 20
82.42499999999999
 30
0.0
 11
152.275
 21
82.42499999999999
 31
0.0
  0
MTEXT
  5
51B
330
11D
100
AcDbEntity
  8
0
100
AcDbMText
 10
136.25
 20
100.3
 30
0.0
 40
1.5
 41
13.365
 46
0.0
 71
     1
 72
     5
  1
\fＭＳ 明朝|b0|i0|c128|p17;\T1.8854;ポンプ
  7
BIGFONT
 73
     1
 44
1.191591
  0
CIRCLE
  5
51E
330
11D
100
AcDbEntity
  8
0
370
    20
100
AcDbCircle
 10
140.525
 20
89.725
 30
0.0
 40
0.95
  0
LWPOLYLINE
  5
521
330
11D
100
AcDbEntity
  8
0
370
    20
100
AcDbPolyline
 90
        4
 70
     1
 43
0.0
 10
114.2
 20
103.05
 10
114.2
 20
97.34999999999999
 10
118.65
 20
97.34999999999999
 10
118.65
 20
103.05
  0
ELLIPSE
  5
52C
330
11D
100
AcDbEntity
  8
0
370
    20
100
AcDbEllipse
 10
116.425
 20
103.05
 30
0.0
 11
2.2
 21
0.0
 31
0.0
210
0.0
220
0.0
230
1.0
 40
0.431818
 41
0.0
 42
3.141592999999999
  0
ELLIPSE
  5
52F
330
11D
100
AcDbEntity
  8
0
370
    20
100
AcDbEllipse
 10
116.425
 20
97.34999999999999
 30
0.0
 11
2.2
 21
0.0
 31
0.0
210
0.0
220
0.0
230
1.0
 40
0.431818
 41
3.141592999999999
 42
6.283184999999999
  0
LINE
  5
532
330
11D
100
AcDbEntity
  8
0
370
    20
100
AcDbLine
 10
137.35
 20
87.2
 30
0.0
 11
137.35
 21
92.9
 31
0.0
  0
LINE
  5
535
330
11D
100
AcDbEntity
  8
0
370
    20
100
AcDbLine
 10
137.35
 20
92.9
 30
0.0
 11
143.7
 21
92.9
 31
0.0
  0
LINE
  5
538
330
11D
100
AcDbEntity
  8
0
370
    20
100
AcDbLine
 10
143.7
 20
92.9
 30
0.0
 11
143.7
 21
96.4
 31
0.0
  0
LINE
  5
53B
330
11D
100
AcDbEntity
  8
0
370
    20
100
AcDbLine
 10
143.7
 20
96.4
 30
0.0
 11
149.4
 21
96.4
 31
0.0
  0
LINE
  5
53E
330
11D
100
AcDbEntity
  8
0
370
    20
100
AcDbLine
 10
149.4
 20
96.4
 30
0.0
 11
149.4
 21
87.2
 31
0.0
  0
LINE
  5
541
330
11D
100
AcDbEntity
  8
0
370
    20
100
AcDbLine
 10
114.525
 20
87.2
 30
0.0
 11
114.525
 21
84.35
 31
0.0
  0
LINE
  5
544
330
11D
100
AcDbEntity
  8
0
370
    20
100
AcDbLine
 10
150.675
 20
84.35
 30
0.0
 11
150.675
 21
87.2
 31
0.0
  0
LINE
  5
547
330
11D
100
AcDbEntity
  8
0
370
    20
100
AcDbLine
 10
112.3
 20
84.35
 30
0.0
 11
112.3
 21
82.42499999999999
 31
0.0
  0
LINE
  5
54A
330
11D
100
AcDbEntity
  8
0
370
    20
100
AcDbLine
 10
152.275
 20
84.35
 30
0.0
 11
152.275
 21
82.42499999999999
 31
0.0
  0
LINE
  5
54D
330
11D
100
AcDbEntity
  8
0
370
    20
100
AcDbLine
 10
123.725
 20
87.2
 30
0.0
 11
123.725
 21
96.4
 31
0.0
  0
LINE
  5
550
330
11D
100
AcDbEntity
  8
0
370
    20
100
AcDbLine
 10
131.975
 20
96.4
 30
0.0
 11
131.975
 21
87.2
 31
0.0
  0
LINE
  5
553
330
11D
100
AcDbEntity
  8
0
370
    20
100
AcDbLine
 10
118.95
 20
92.9
 30
0.0
 11
118.95
 21
89.725
 31
0.0
  0
LINE
  5
556
330
11D
100
AcDbEntity
  8
0
370
    20
100
AcDbLine
 10
118.95
 20
89.725
 30
0.0
 11
123.725
 21
89.725
 31
0.0
  0
LINE
  5
559
330
11D
100
AcDbEntity
  8
0
370
    20
100
AcDbLine
 10
123.725
 20
89.725
 30
0.0
 11
123.725
 21
92.9
 31
0.0
  0
LINE
  5
55C
330
11D
100
AcDbEntity
  8
0
370
    20
100
AcDbLine
 10
123.725
 20
92.9
 30
0.0
 11
118.95
 21
92.9
 31
0.0
  0
LINE
  5
55F
330
11D
100
AcDbEntity
  8
0
370
    20
100
AcDbLine
 10
117.675
 20
93.84999999999999
 30
0.0
 11
117.675
 21
87.2
 31
0.0
  0
LINE
  5
562
330
11D
100
AcDbEntity
  8
0
370
    20
100
AcDbLine
 10
117.675
 20
87.2
 30
0.0
 11
118.95
 21
87.2
 31
0.0
  0
LINE
  5
565
330
11D
100
AcDbEntity
  8
0
370
    20
100
AcDbLine
 10
118.95
 20
87.2
 30
0.0
 11
118.95
 21
93.84999999999999
 31
0.0
  0
LINE
  5
568
330
11D
100
AcDbEntity
  8
0
370
    20
100
AcDbLine
 10
118.95
 20
93.84999999999999
 30
0.0
 11
117.675
 21
93.84999999999999
 31
0.0
  0
LINE
  5
56B
330
11D
100
AcDbEntity
  8
0
370
    20
100
AcDbLine
 10
115.775
 20
96.4
 30
0.0
 11
115.775
 21
92.9
 31
0.0
  0
LINE
  5
56E
330
11D
100
AcDbEntity
  8
0
370
    20
100
AcDbLine
 10
115.775
 20
92.9
 30
0.0
 11
117.375
 21
92.9
 31
0.0
  0
LINE
  5
571
330
11D
100
AcDbEntity
  8
0
370
    20
100
AcDbLine
 10
117.375
 20
92.9
 30
0.0
 11
117.375
 21
96.4
 31
0.0
  0
LINE
  5
574
330
11D
100
AcDbEntity
  8
0
370
    20
100
AcDbLine
 10
117.375
 20
96.4
 30
0.0
 11
115.775
 21
96.4
 31
0.0
  0
LINE
  5
577
330
11D
100
AcDbEntity
  8
0
370
    20
100
AcDbLine
 10
115.475
 20
92.9
 30
0.0
 11
115.475
 21
89.725
 31
0.0
  0
LINE
  5
57A
330
11D
100
AcDbEntity
  8
0
370
    20
100
AcDbLine
 10
115.475
 20
89.725
 30
0.0
 11
117.675
 21
89.725
 31
0.0
  0
LINE
  5
57D
330
11D
100
AcDbEntity
  8
0
370
    20
100
AcDbLine
 10
117.675
 20
89.725
 30
0.0
 11
117.675
 21
92.9
 31
0.0
  0
LINE
  5
580
330
11D
100
AcDbEntity
  8
0
370
    20
100
AcDbLine
 10
117.675
 20
92.9
 30
0.0
 11
115.475
 21
92.9
 31
0.0
  0
LWPOLYLINE
  5
583
330
11D
100
AcDbEntity
  8
0
100
AcDbPolyline
 90
        4
 70
     1
 43
0.4
 10
102.775
 20
86.25
 10
102.775
 20
84.65000000000001
 10
101.2
 20
84.65000000000001
 10
101.2
 20
86.25
  0
LINE
  5
58E
330
11D
100
AcDbEntity
  8
0
370
    20
100
AcDbLine
 10
103.1
 20
86.25
 30
0.0
 11
101.5
 21
86.25
 31
0.0
  0
LINE
  5
591
330
11D
100
AcDbEntity
  8
0
370
    20
100
AcDbLine
 10
88.175
 20
84.02500000000001
 30
0.0
 11
90.075
 21
84.02500000000001
 31
0.0
  0
LINE
  5
594
330
11D
100
AcDbEntity
  8
0
370
    20
100
AcDbLine
 10
93.57499999999999
 20
84.02500000000001
 30
0.0
 11
93.9
 21
84.02500000000001
 31
0.0
  0
LINE
  5
597
330
11D
100
AcDbEntity
  8
0
370
    20
100
AcDbLine
 10
95.47499999999999
 20
84.02500000000001
 30
0.0
 11
97.375
 21
84.02500000000001
 31
0.0
  0
LINE
  5
59A
330
11D
100
AcDbEntity
  8
0
370
    20
100
AcDbLine
 10
99.6
 20
84.02500000000001
 30
0.0
 11
100.875
 21
84.02500000000001
 31
0.0
  0
LINE
  5
59D
330
11D
100
AcDbEntity
  8
0
370
    30
100
AcDbLine
 10
104.375
 20
82.75
 30
0.0
 11
104.375
 21
92.9
 31
0.0
  0
LINE
  5
5A0
330
11D
100
AcDbEntity
  8
0
370
    30
100
AcDbLine
 10
78.02500000000001
 20
93.84999999999999
 30
0.0
 11
87.87499999999999
 21
93.84999999999999
 31
0.0
  0
LINE
  5
5A3
330
11D
100
AcDbEntity
  8
0
370
    30
100
AcDbLine
 10
87.87499999999999
 20
96.07500000000001
 30
0.0
 11
78.02500000000001
 21
96.07500000000001
 31
0.0
  0
LINE
  5
5A6
330
11D
100
AcDbEntity
  8
0
370
    30
100
AcDbLine
 10
78.02500000000001
 20
96.07500000000001
 30
0.0
 11
78.02500000000001
 21
98.3
 31
0.0
  0
LINE
  5
5A9
330
11D
100
AcDbEntity
  8
0
370
    20
100
AcDbLine
 10
83.1
 20
131.6
 30
0.0
 11
84.7
 21
131.6
 31
0.0
  0
LINE
  5
5AC
330
11D
100
AcDbEntity
  8
0
370
    20
100
AcDbLine
 10
83.1
 20
131.6
 30
0.0
 11
83.1
 21
96.07500000000001
 31
0.0
  0
LINE
  5
5AF
330
11D
100
AcDbEntity
  8
0
370
    20
100
AcDbLine
 10
84.7
 20
131.6
 30
0.0
 11
84.7
 21
106.55
 31
0.0
  0
LINE
  5
5B2
330
11D
100
AcDbEntity
  8
0
370
    30
100
AcDbLine
 10
77.72499999999999
 20
95.75000000000001
 30
0.0
 11
78.02500000000001
 21
96.07500000000001
 31
0.0
  0
LINE
  5
5B5
330
11D
100
AcDbEntity
  8
0
370
    30
100
AcDbLine
 10
78.02500000000001
 20
93.84999999999999
 30
0.0
 11
77.72499999999999
 21
94.175
 31
0.0
  0
LINE
  5
5B8
330
11D
100
AcDbEntity
  8
0
370
    30
100
AcDbLine
 10
87.87499999999999
 20
96.07500000000001
 30
0.0
 11
88.49999999999999
 21
95.44999999999999
 31
0.0
  0
LINE
  5
5BB
330
11D
100
AcDbEntity
  8
0
370
    30
100
AcDbLine
 10
87.87499999999999
 20
93.84999999999999
 30
0.0
 11
88.175
 21
94.175
 31
0.0
  0
LINE
  5
5BE
330
11D
100
AcDbEntity
  8
0
370
    30
100
AcDbLine
 10
87.87499999999999
 20
96.07500000000001
 30
0.0
 11
87.225
 21
95.44999999999999
 31
0.0
  0
LINE
  5
5C1
330
11D
100
AcDbEntity
  8
0
370
    30
100
AcDbLine
 10
87.225
 20
95.44999999999999
 30
0.0
 11
87.225
 21
94.8
 31
0.0
  0
LINE
  5
5C4
330
11D
100
AcDbEntity
  8
0
370
    30
100
AcDbLine
 10
87.225
 20
94.8
 30
0.0
 11
87.87499999999999
 21
93.84999999999999
 31
0.0
  0
HATCH
  5
5C7
330
11D
100
AcDbEntity
  8
0
100
AcDbHatch
 10
0.0
 20
0.0
 30
0.0
210
0.0
220
0.0
230
1.0
  2
ANSI37
 70
     0
 71
     0
 91
        1
 92
        7
 72
     0
 73
     1
 93
       10
 10
30.75
 20
128.75
 10
30.75
 20
128.425
 10
29.8
 20
127.475
 10
28.55
 20
127.475
 10
27.6
 20
128.425
 10
27.6
 20
129.7
 10
28.55
 20
130.65
 10
29.8
 20
130.65
 10
30.75
 20
129.7
 10
30.75
 20
129.075
 97
        1
330
5CA
 75
     0
 76
     1
 52
0.0
 41
0.25
 77
     0
 78
     2
 53
45.0
 43
0.0
 44
0.0
 45
-0.5612660075668221
 46
0.5612660075668221
 79
     0
 53
135.0
 43
0.0
 44
0.0
 45
-0.5612660075668221
 46
-0.5612660075668221
 79
     0
 47
0.651316
 98
        1
 10
0.0
 20
0.0
  0
LWPOLYLINE
  5
5CA
330
11D
100
AcDbEntity
  8
0
370
    20
100
AcDbPolyline
 90
       10
 70
     1
 43
0.0
 10
30.75
 20
128.75
 10
30.75
 20
128.425
 10
29.8
 20
127.475
 10
28.55
 20
127.475
 10
27.6
 20
128.425
 10
27.6
 20
129.7
 10
28.55
 20
130.65
 10
29.8
 20
130.65
 10
30.75
 20
129.7
 10
30.75
 20
129.075
  0
CIRCLE
  5
5E1
330
11D
100
AcDbEntity
  8
0
370
    20
100
AcDbCircle
 10
29.175
 20
129.075
 30
0.0
 40
1.575
  0
LINE
  5
5E4
330
11D
100
AcDbEntity
  8
0
370
    20
100
AcDbLine
 10
45.67499999999999
 20
132.875
 30
0.0
 11
45.67499999999999
 21
154.45
 31
0.0
  0
LINE
  5
5E7
330
11D
100
AcDbEntity
  8
0
370
    20
100
AcDbLine
 10
30.125
 20
154.45
 30
0.0
 11
30.125
 21
132.875
 31
0.0
  0
LINE
  5
5EA
330
11D
100
AcDbEntity
  8
0
370
    20
100
AcDbLine
 10
31.725
 20
132.875
 30
0.0
 11
45.67499999999999
 21
132.875
 31
0.0
  0
LINE
  5
5ED
330
11D
100
AcDbEntity
  8
0
370
    20
100
AcDbLine
 10
30.125
 20
154.45
 30
0.0
 11
39.325
 21
154.45
 31
0.0
  0
LINE
  5
5F0
330
11D
100
AcDbEntity
  8
0
370
    20
100
AcDbLine
 10
40.925
 20
154.45
 30
0.0
 11
45.67499999999999
 21
154.45
 31
0.0
  0
CIRCLE
  5
5F3
330
11D
100
AcDbEntity
  8
0
370
    40
100
AcDbCircle
 10
40.6
 20
159.2
 30
0.0
 40
0.95
  0
CIRCLE
  5
5F6
330
11D
100
AcDbEntity
  8
0
370
    40
100
AcDbCircle
 10
50.75
 20
183.0
 30
0.0
 40
0.95
  0
CIRCLE
  5
5F9
330
11D
100
AcDbEntity
  8
0
370
    40
100
AcDbCircle
 10
62.8
 20
210.925
 30
0.0
 40
0.95
  0
MTEXT
  5
5FC
330
11D
100
AcDbEntity
  8
0
100
AcDbMText
 10
111.2
 20
78.72499999999999
 30
0.0
 40
1.5
 41
22.275
 46
0.0
 71
     1
 72
     5
  1
\fＭＳ 明朝|b0|i0|c128|p17;\T1.8854;泥水バック
  7
BIGFONT
 73
     1
 44
1.191591
  0
MTEXT
  5
5FF
330
11D
100
AcDbEntity
  8
0
100
AcDbMText
 10
7.775
 20
111.1
 30
0.0
 40
1.5
 41
22.275
 46
0.0
 71
     1
 72
     5
  1
\fＭＳ 明朝|b0|i0|c128|p17;\T1.8772;単管パイプ
  7
BIGFONT
 73
     1
 44
1.191591
  0
MTEXT
  5
602
330
11D
100
AcDbEntity
  8
0
100
AcDbMText
 10
46.47499999999999
 20
92.70000000000001
 30
0.0
 40
1.5
 41
17.82
 46
0.0
 71
     1
 72
     5
  1
\fＭＳ 明朝|b0|i0|c128|p17;\T1.8854;クランプ
  7
BIGFONT
 73
     1
 44
1.191591
  0
MTEXT
  5
605
330
11D
100
AcDbEntity
  8
0
100
AcDbMText
 10
119.125
 20
136.8
 30
0.0
 40
1.5
 41
40.095
 46
0.0
 71
     1
 72
     5
  1
\fＭＳ 明朝|b0|i0|c128|p17;\T1.8854;足場板・単管パイプ
  7
BIGFONT
 73
     1
 44
1.191591
  0
LWPOLYLINE
  5
608
330
11D
100
AcDbEntity
  8
0
370
    20
100
AcDbPolyline
 90
        3
 70
     0
 43
0.0
 10
119.6
 20
133.2
 10
117.675
 20
127.175
 10
118.0
 20
130.65
  0
LINE
  5
611
330
11D
100
AcDbEntity
  8
0
370
    20
100
AcDbLine
 10
73.275
 20
26.05
 30
0.0
 11
74.55
 21
26.05
 31
0.0
  0
LINE
  5
614
330
11D
100
AcDbEntity
  8
0
370
    20
100
AcDbLine
 10
74.55
 20
26.05
 30
0.0
 11
74.55
 21
33.65
 31
0.0
  0
LINE
  5
617
330
11D
100
AcDbEntity
  8
0
370
    20
100
AcDbLine
 10
74.55
 20
33.65
 30
0.0
 11
77.075
 21
33.65
 31
0.0
  0
LINE
  5
61A
330
11D
100
AcDbEntity
  8
0
370
    20
100
AcDbLine
 10
77.075
 20
33.65
 30
0.0
 11
77.075
 21
26.05
 31
0.0
  0
LINE
  5
61D
330
11D
100
AcDbEntity
  8
0
370
    20
100
AcDbLine
 10
77.075
 20
26.05
 30
0.0
 11
78.34999999999999
 21
26.05
 31
0.0
  0
LINE
  5
620
330
11D
100
AcDbEntity
  8
0
370
    20
100
AcDbLine
 10
76.45
 20
77.34999999999999
 30
0.0
 11
76.45
 21
41.7
 31
0.0
  0
LINE
  5
623
330
11D
100
AcDbEntity
  8
0
370
    20
100
AcDbLine
 10
76.45
 20
31.125
 30
0.0
 11
76.45
 21
30.8
 31
0.0
  0
LWPOLYLINE
  5
626
330
11D
100
AcDbEntity
  8
0
370
    30
100
AcDbPolyline
 90
        3
 70
     0
 43
0.0
 10
78.67499999999999
 20
48.67499999999999
 10
88.175
 20
43.925
 10
91.675
 20
42.0
  0
LWPOLYLINE
  5
62F
330
11D
100
AcDbEntity
  8
0
370
    30
100
AcDbPolyline
 90
        2
 70
     0
 43
0.0
 10
98.22499999999999
 20
38.4
 10
108.75
 20
32.625
  0
LINE
  5
636
330
11D
100
AcDbEntity
  8
0
370
    20
100
AcDbLine
 10
72.0
 20
132.875
 30
0.0
 11
72.0
 21
130.025
 31
0.0
  0
LINE
  5
639
330
11D
100
AcDbEntity
  8
0
370
    20
100
AcDbLine
 10
26.95
 20
130.025
 30
0.0
 11
26.95
 21
132.875
 31
0.0
  0
LWPOLYLINE
  5
63C
330
11D
100
AcDbEntity
  8
0
370
    20
100
AcDbPolyline
 90
        4
 70
     1
 43
0.0
 10
48.85
 20
182.05
 10
48.85
 20
180.475
 10
98.32500000000001
 20
180.475
 10
98.32500000000001
 20
182.05
  0
HATCH
  5
647
330
11D
100
AcDbEntity
  8
0
100
AcDbHatch
 10
0.0
 20
0.0
 30
0.0
210
0.0
220
0.0
230
1.0
  2
ANSI37
 70
     0
 71
     0
 91
        1
 92
        7
 72
     0
 73
     1
 93
       10
 10
52.975
 20
181.1
 10
52.975
 20
180.775
 10
52.025
 20
179.825
 10
50.75
 20
179.825
 10
49.8
 20
180.775
 10
49.8
 20
182.05
 10
50.75
 20
183.0
 10
52.025
 20
183.0
 10
52.975
 20
182.05
 10
52.975
 20
181.425
 97
        1
330
64A
 75
     0
 76
     1
 52
0.0
 41
0.25
 77
     0
 78
     2
 53
45.0
 43
0.0
 44
0.0
 45
-0.5612660075668221
 46
0.5612660075668221
 79
     0
 53
135.0
 43
0.0
 44
0.0
 45
-0.5612660075668221
 46
-0.5612660075668221
 79
     0
 47
0.651316
 98
        1
 10
0.0
 20
0.0
  0
LWPOLYLINE
  5
64A
330
11D
100
AcDbEntity
  8
0
370
    20
100
AcDbPolyline
 90
       10
 70
     1
 43
0.0
 10
52.975
 20
181.1
 10
52.975
 20
180.775
 10
52.025
 20
179.825
 10
50.75
 20
179.825
 10
49.8
 20
180.775
 10
49.8
 20
182.05
 10
50.75
 20
183.0
 10
52.025
 20
183.0
 10
52.975
 20
182.05
 10
52.975
 20
181.425
  0
CIRCLE
  5
661
330
11D
100
AcDbEntity
  8
0
370
    20
100
AcDbCircle
 10
51.375
 20
181.425
 30
0.0
 40
1.575
  0
HATCH
  5
664
330
11D
100
AcDbEntity
  8
0
100
AcDbHatch
 10
0.0
 20
0.0
 30
0.0
210
0.0
220
0.0
230
1.0
  2
ANSI37
 70
     0
 71
     0
 91
        1
 92
        7
 72
     0
 73
     1
 93
       10
 10
95.47499999999999
 20
180.775
 10
95.47499999999999
 20
180.475
 10
94.525
 20
179.525
 10
93.25000000000001
 20
179.525
 10
92.3
 20
180.475
 10
92.3
 20
181.725
 10
93.25000000000001
 20
182.675
 10
94.525
 20
182.675
 10
95.47499999999999
 20
181.725
 10
95.47499999999999
 20
181.1
 97
        1
330
667
 75
     0
 76
     1
 52
0.0
 41
0.25
 77
     0
 78
     2
 53
45.0
 43
0.0
 44
0.0
 45
-0.5612660075668221
 46
0.5612660075668221
 79
     0
 53
135.0
 43
0.0
 44
0.0
 45
-0.5612660075668221
 46
-0.5612660075668221
 79
     0
 47
0.651316
 98
        1
 10
0.0
 20
0.0
  0
LWPOLYLINE
  5
667
330
11D
100
AcDbEntity
  8
0
370
    20
100
AcDbPolyline
 90
       10
 70
     1
 43
0.0
 10
95.47499999999999
 20
180.775
 10
95.47499999999999
 20
180.475
 10
94.525
 20
179.525
 10
93.25000000000001
 20
179.525
 10
92.3
 20
180.475
 10
92.3
 20
181.725
 10
93.25000000000001
 20
182.675
 10
94.525
 20
182.675
 10
95.47499999999999
 20
181.725
 10
95.47499999999999
 20
181.1
  0
CIRCLE
  5
67E
330
11D
100
AcDbEntity
  8
0
370
    20
100
AcDbCircle
 10
93.9
 20
181.1
 30
0.0
 40
1.575
  0
HATCH
  5
681
330
11D
100
AcDbEntity
  8
0
100
AcDbHatch
 10
0.0
 20
0.0
 30
0.0
210
0.0
220
0.0
230
1.0
  2
ANSI37
 70
     0
 71
     0
 91
        1
 92
        7
 72
     0
 73
     1
 93
       10
 10
65.02500000000001
 20
208.7
 10
65.02500000000001
 20
208.375
 10
64.075
 20
207.425
 10
62.8
 20
207.425
 10
61.85
 20
208.375
 10
61.85
 20
209.65
 10
62.8
 20
210.6
 10
64.075
 20
210.6
 10
65.02500000000001
 20
209.65
 10
65.02500000000001
 20
209.025
 97
        1
330
684
 75
     0
 76
     1
 52
0.0
 41
0.25
 77
     0
 78
     2
 53
45.0
 43
0.0
 44
0.0
 45
-0.5612660075668221
 46
0.5612660075668221
 79
     0
 53
135.0
 43
0.0
 44
0.0
 45
-0.5612660075668221
 46
-0.5612660075668221
 79
     0
 47
0.651316
 98
        1
 10
0.0
 20
0.0
  0
LWPOLYLINE
  5
684
330
11D
100
AcDbEntity
  8
0
370
    20
100
AcDbPolyline
 90
       10
 70
     1
 43
0.0
 10
65.02500000000001
 20
208.7
 10
65.02500000000001
 20
208.375
 10
64.075
 20
207.425
 10
62.8
 20
207.425
 10
61.85
 20
208.375
 10
61.85
 20
209.65
 10
62.8
 20
210.6
 10
64.075
 20
210.6
 10
65.02500000000001
 20
209.65
 10
65.02500000000001
 20
209.025
  0
CIRCLE
  5
69B
330
11D
100
AcDbEntity
  8
0
370
    20
100
AcDbCircle
 10
63.45
 20
209.025
 30
0.0
 40
1.575
  0
HATCH
  5
69E
330
11D
100
AcDbEntity
  8
0
100
AcDbHatch
 10
0.0
 20
0.0
 30
0.0
210
0.0
220
0.0
230
1.0
  2
ANSI37
 70
     0
 71
     0
 91
        1
 92
        7
 72
     0
 73
     1
 93
       10
 10
86.925
 20
208.7
 10
86.925
 20
208.375
 10
85.95
 20
207.425
 10
84.7
 20
207.425
 10
83.75
 20
208.375
 10
83.75
 20
209.65
 10
84.7
 20
210.6
 10
85.95
 20
210.6
 10
86.925
 20
209.65
 10
86.925
 20
209.025
 97
        1
330
6A1
 75
     0
 76
     1
 52
0.0
 41
0.25
 77
     0
 78
     2
 53
45.0
 43
0.0
 44
0.0
 45
-0.5612660075668221
 46
0.5612660075668221
 79
     0
 53
135.0
 43
0.0
 44
0.0
 45
-0.5612660075668221
 46
-0.5612660075668221
 79
     0
 47
0.651316
 98
        1
 10
0.0
 20
0.0
  0
LWPOLYLINE
  5
6A1
330
11D
100
AcDbEntity
  8
0
370
    20
100
AcDbPolyline
 90
       10
 70
     1
 43
0.0
 10
86.925
 20
208.7
 10
86.925
 20
208.375
 10
85.95
 20
207.425
 10
84.7
 20
207.425
 10
83.75
 20
208.375
 10
83.75
 20
209.65
 10
84.7
 20
210.6
 10
85.95
 20
210.6
 10
86.925
 20
209.65
 10
86.925
 20
209.025
  0
CIRCLE
  5
6B8
330
11D
100
AcDbEntity
  8
0
370
    20
100
AcDbCircle
 10
85.325
 20
209.025
 30
0.0
 40
1.575
  0
LINE
  5
6BE
330
11D
100
AcDbEntity
  8
0
370
    20
100
AcDbLine
 10
60.575
 20
209.65
 30
0.0
 11
60.575
 21
208.375
 31
0.0
  0
LINE
  5
6C1
330
11D
100
AcDbEntity
  8
0
370
    20
100
AcDbLine
 10
60.575
 20
208.375
 30
0.0
 11
88.49999999999999
 21
208.375
 31
0.0
  0
LINE
  5
6C4
330
11D
100
AcDbEntity
  8
0
370
    20
100
AcDbLine
 10
88.49999999999999
 20
208.375
 30
0.0
 11
88.49999999999999
 21
209.65
 31
0.0
  0
LINE
  5
6C7
330
11D
100
AcDbEntity
  8
0
370
    20
100
AcDbLine
 10
88.49999999999999
 20
209.65
 30
0.0
 11
60.575
 21
209.65
 31
0.0
  0
LINE
  5
6CA
330
11D
100
AcDbEntity
  8
0
  6
DASHED
 62
     7
370
    30
100
AcDbLine
 10
66.6
 20
182.05
 30
0.0
 11
70.72499999999999
 21
208.375
 31
0.0
  0
LINE
  5
6CD
330
11D
100
AcDbEntity
  8
0
  6
DASHED
 62
     7
370
    30
100
AcDbLine
 10
71.05
 20
209.65
 30
0.0
 11
74.55
 21
229.0
 31
0.0
  0
LINE
  5
6D0
330
11D
100
AcDbEntity
  8
0
370
    20
100
AcDbLine
 10
26.95
 20
132.875
 30
0.0
 11
30.125
 21
132.875
 31
0.0
  0
LINE
  5
6D3
330
11D
100
AcDbEntity
  8
0
370
    20
100
AcDbLine
 10
31.725
 20
132.875
 30
0.0
 11
72.0
 21
132.875
 31
0.0
  0
LINE
  5
6D6
330
11D
100
AcDbEntity
  8
0
370
    20
100
AcDbLine
 10
69.47499999999999
 20
130.025
 30
0.0
 11
72.0
 21
130.025
 31
0.0
  0
LINE
  5
6D9
330
11D
100
AcDbEntity
  8
0
370
    20
100
AcDbLine
 10
26.95
 20
130.025
 30
0.0
 11
40.27499999999999
 21
130.025
 31
0.0
  0
LWPOLYLINE
  5
6DC
330
11D
100
AcDbEntity
  8
0
370
    20
100
AcDbPolyline
 90
        3
 70
     0
 43
0.0
 10
78.67499999999999
 20
176.65
 10
87.225
 20
157.95
 10
98.975
 20
138.9
  0
LWPOLYLINE
  5
6E5
330
11D
100
AcDbEntity
  8
0
370
    20
100
AcDbPolyline
 90
        3
 70
     0
 43
0.0
 10
79.29999999999999
 20
176.975
 10
88.175
 20
158.575
 10
99.92499999999999
 20
139.225
  0
LINE
  5
6EE
330
11D
100
AcDbEntity
  8
0
370
    20
100
AcDbLine
 10
128.8
 20
130.025
 30
0.0
 11
130.375
 21
130.025
 31
0.0
  0
LINE
  5
6F1
330
11D
100
AcDbEntity
  8
0
370
    20
100
AcDbLine
 10
128.8
 20
130.025
 30
0.0
 11
128.8
 21
109.725
 31
0.0
  0
LINE
  5
6F4
330
11D
100
AcDbEntity
  8
0
370
    20
100
AcDbLine
 10
130.375
 20
130.025
 30
0.0
 11
130.375
 21
109.725
 31
0.0
  0
LINE
  5
6F7
330
11D
100
AcDbEntity
  8
0
370
    20
100
AcDbLine
 10
98.02500000000001
 20
131.3
 30
0.0
 11
99.6
 21
131.3
 31
0.0
  0
LINE
  5
6FA
330
11D
100
AcDbEntity
  8
0
370
    20
100
AcDbLine
 10
98.02500000000001
 20
131.3
 30
0.0
 11
98.02500000000001
 21
109.725
 31
0.0
  0
LINE
  5
6FD
330
11D
100
AcDbEntity
  8
0
370
    20
100
AcDbLine
 10
99.6
 20
131.3
 30
0.0
 11
99.6
 21
109.725
 31
0.0
  0
LINE
  5
700
330
11D
100
AcDbEntity
  8
0
370
    20
100
AcDbLine
 10
99.6
 20
109.725
 30
0.0
 11
99.6
 21
82.42499999999999
 31
0.0
  0
LINE
  5
703
330
11D
100
AcDbEntity
  8
0
370
    20
100
AcDbLine
 10
98.02500000000001
 20
109.725
 30
0.0
 11
98.02500000000001
 21
82.75
 31
0.0
  0
HATCH
  5
706
330
11D
100
AcDbEntity
  8
0
100
AcDbHatch
 10
0.0
 20
0.0
 30
0.0
210
0.0
220
0.0
230
1.0
  2
ANSI37
 70
     0
 71
     0
 91
        1
 92
        7
 72
     0
 73
     1
 93
       10
 10
52.325
 20
126.85
 10
52.325
 20
126.525
 10
51.375
 20
125.575
 10
50.125
 20
125.575
 10
49.15
 20
126.525
 10
49.15
 20
127.8
 10
50.125
 20
128.75
 10
51.375
 20
128.75
 10
52.325
 20
127.8
 10
52.325
 20
127.175
 97
        1
330
709
 75
     0
 76
     1
 52
0.0
 41
0.25
 77
     0
 78
     2
 53
45.0
 43
0.0
 44
0.0
 45
-0.5612660075668221
 46
0.5612660075668221
 79
     0
 53
135.0
 43
0.0
 44
0.0
 45
-0.5612660075668221
 46
-0.5612660075668221
 79
     0
 47
0.651316
 98
        1
 10
0.0
 20
0.0
  0
LWPOLYLINE
  5
709
330
11D
100
AcDbEntity
  8
0
370
    20
100
AcDbPolyline
 90
       10
 70
     1
 43
0.0
 10
52.325
 20
126.85
 10
52.325
 20
126.525
 10
51.375
 20
125.575
 10
50.125
 20
125.575
 10
49.15
 20
126.525
 10
49.15
 20
127.8
 10
50.125
 20
128.75
 10
51.375
 20
128.75
 10
52.325
 20
127.8
 10
52.325
 20
127.175
  0
CIRCLE
  5
720
330
11D
100
AcDbEntity
  8
0
370
    20
100
AcDbCircle
 10
50.75
 20
127.175
 30
0.0
 40
1.575
  0
HATCH
  5
723
330
11D
100
AcDbEntity
  8
0
100
AcDbHatch
 10
0.0
 20
0.0
 30
0.0
210
0.0
220
0.0
230
1.0
  2
ANSI37
 70
     0
 71
     0
 91
        1
 92
        7
 72
     0
 73
     1
 93
       10
 10
100.25
 20
126.85
 10
100.25
 20
126.525
 10
99.27500000000001
 20
125.575
 10
98.02500000000001
 20
125.575
 10
97.07500000000001
 20
126.525
 10
97.07500000000001
 20
127.8
 10
98.02500000000001
 20
128.75
 10
99.27500000000001
 20
128.75
 10
100.25
 20
127.8
 10
100.25
 20
127.175
 97
        1
330
726
 75
     0
 76
     1
 52
0.0
 41
0.25
 77
     0
 78
     2
 53
45.0
 43
0.0
 44
0.0
 45
-0.5612660075668221
 46
0.5612660075668221
 79
     0
 53
135.0
 43
0.0
 44
0.0
 45
-0.5612660075668221
 46
-0.5612660075668221
 79
     0
 47
0.651316
 98
        1
 10
0.0
 20
0.0
  0
LWPOLYLINE
  5
726
330
11D
100
AcDbEntity
  8
0
370
    20
100
AcDbPolyline
 90
       10
 70
     1
 43
0.0
 10
100.25
 20
126.85
 10
100.25
 20
126.525
 10
99.27500000000001
 20
125.575
 10
98.02500000000001
 20
125.575
 10
97.07500000000001
 20
126.525
 10
97.07500000000001
 20
127.8
 10
98.02500000000001
 20
128.75
 10
99.27500000000001
 20
128.75
 10
100.25
 20
127.8
 10
100.25
 20
127.175
  0
CIRCLE
  5
73D
330
11D
100
AcDbEntity
  8
0
370
    20
100
AcDbCircle
 10
98.65000000000001
 20
127.175
 30
0.0
 40
1.575
  0
HATCH
  5
740
330
11D
100
AcDbEntity
  8
0
100
AcDbHatch
 10
0.0
 20
0.0
 30
0.0
210
0.0
220
0.0
230
1.0
  2
ANSI37
 70
     0
 71
     0
 91
        1
 92
        7
 72
     0
 73
     1
 93
       10
 10
131.0
 20
126.85
 10
131.0
 20
126.525
 10
130.05
 20
125.575
 10
128.8
 20
125.575
 10
127.85
 20
126.525
 10
127.85
 20
127.8
 10
128.8
 20
128.75
 10
130.05
 20
128.75
 10
131.0
 20
127.8
 10
131.0
 20
127.175
 97
        1
330
743
 75
     0
 76
     1
 52
0.0
 41
0.25
 77
     0
 78
     2
 53
45.0
 43
0.0
 44
0.0
 45
-0.5612660075668221
 46
0.5612660075668221
 79
     0
 53
135.0
 43
0.0
 44
0.0
 45
-0.5612660075668221
 46
-0.5612660075668221
 79
     0
 47
0.651316
 98
        1
 10
0.0
 20
0.0
  0
LWPOLYLINE
  5
743
330
11D
100
AcDbEntity
  8
0
370
    20
100
AcDbPolyline
 90
       10
 70
     1
 43
0.0
 10
131.0
 20
126.85
 10
131.0
 20
126.525
 10
130.05
 20
125.575
 10
128.8
 20
125.575
 10
127.85
 20
126.525
 10
127.85
 20
127.8
 10
128.8
 20
128.75
 10
130.05
 20
128.75
 10
131.0
 20
127.8
 10
131.0
 20
127.175
  0
CIRCLE
  5
75A
330
11D
100
AcDbEntity
  8
0
370
    20
100
AcDbCircle
 10
129.425
 20
127.175
 30
0.0
 40
1.575
  0
LINE
  5
75D
330
11D
100
AcDbEntity
  8
0
370
    20
100
AcDbLine
 10
74.84999999999999
 20
110.675
 30
0.0
 11
74.84999999999999
 21
109.075
 31
0.0
  0
LINE
  5
760
330
11D
100
AcDbEntity
  8
0
370
    20
100
AcDbLine
 10
76.45
 20
110.35
 30
0.0
 11
76.45
 21
109.4
 31
0.0
  0
LINE
  5
763
330
11D
100
AcDbEntity
  8
0
370
    20
100
AcDbLine
 10
74.84999999999999
 20
107.175
 30
0.0
 11
74.84999999999999
 21
105.275
 31
0.0
  0
LINE
  5
766
330
11D
100
AcDbEntity
  8
0
370
    20
100
AcDbLine
 10
76.45
 20
106.875
 30
0.0
 11
76.45
 21
105.9
 31
0.0
  0
LINE
  5
769
330
11D
100
AcDbEntity
  8
0
370
    20
100
AcDbLine
 10
84.7
 20
106.875
 30
0.0
 11
84.7
 21
96.07500000000001
 31
0.0
  0
LINE
  5
76C
330
11D
100
AcDbEntity
  8
0
370
    20
100
AcDbLine
 10
84.7
 20
90.05
 30
0.0
 11
84.7
 21
89.1
 31
0.0
  0
LINE
  5
76F
330
11D
100
AcDbEntity
  8
0
370
    20
100
AcDbLine
 10
134.175
 20
127.8
 30
0.0
 11
134.175
 21
126.225
 31
0.0
  0
LINE
  5
772
330
11D
100
AcDbEntity
  8
0
370
    20
100
AcDbLine
 10
10.15
 20
127.8
 30
0.0
 11
10.15
 21
126.225
 31
0.0
  0
LINE
  5
775
330
11D
100
AcDbEntity
  8
0
370
    20
100
AcDbLine
 10
84.04999999999999
 20
127.8
 30
0.0
 11
27.9
 21
127.8
 31
0.0
  0
LINE
  5
778
330
11D
100
AcDbEntity
  8
0
370
    20
100
AcDbLine
 10
74.55
 20
127.8
 30
0.0
 11
10.15
 21
127.8
 31
0.0
  0
LINE
  5
77B
330
11D
100
AcDbEntity
  8
0
370
    20
100
AcDbLine
 10
74.55
 20
126.225
 30
0.0
 11
10.15
 21
126.225
 31
0.0
  0
LINE
  5
77E
330
11D
100
AcDbEntity
  8
0
370
    20
100
AcDbLine
 10
74.55
 20
127.8
 30
0.0
 11
92.3
 21
127.8
 31
0.0
  0
LINE
  5
781
330
11D
100
AcDbEntity
  8
0
370
    20
100
AcDbLine
 10
74.55
 20
126.225
 30
0.0
 11
92.62500000000001
 21
126.225
 31
0.0
  0
LINE
  5
784
330
11D
100
AcDbEntity
  8
0
370
    20
100
AcDbLine
 10
92.3
 20
127.8
 30
0.0
 11
102.775
 21
127.8
 31
0.0
  0
LINE
  5
787
330
11D
100
AcDbEntity
  8
0
370
    20
100
AcDbLine
 10
92.62500000000001
 20
126.225
 30
0.0
 11
103.4
 21
126.225
 31
0.0
  0
LINE
  5
78A
330
11D
100
AcDbEntity
  8
0
370
    20
100
AcDbLine
 10
105.0
 20
126.225
 30
0.0
 11
134.175
 21
126.225
 31
0.0
  0
LINE
  5
78D
330
11D
100
AcDbEntity
  8
0
370
    20
100
AcDbLine
 10
50.125
 20
130.025
 30
0.0
 11
39.95
 21
130.025
 31
0.0
  0
LINE
  5
790
330
11D
100
AcDbEntity
  8
0
370
    20
100
AcDbLine
 10
51.7
 20
130.025
 30
0.0
 11
67.875
 21
130.025
 31
0.0
  0
LINE
  5
793
330
11D
100
AcDbEntity
  8
0
370
    20
100
AcDbLine
 10
41.55
 20
130.025
 30
0.0
 11
50.125
 21
130.025
 31
0.0
  0
LINE
  5
796
330
11D
100
AcDbEntity
  8
0
370
    20
100
AcDbLine
 10
51.7
 20
130.025
 30
0.0
 11
67.875
 21
130.025
 31
0.0
  0
LINE
  5
799
330
11D
100
AcDbEntity
  8
0
370
    20
100
AcDbLine
 10
93.57499999999999
 20
127.8
 30
0.0
 11
102.775
 21
127.8
 31
0.0
  0
LINE
  5
79C
330
11D
100
AcDbEntity
  8
0
370
    20
100
AcDbLine
 10
104.375
 20
127.8
 30
0.0
 11
134.175
 21
127.8
 31
0.0
  0
HATCH
  5
79F
330
11D
100
AcDbEntity
  8
0
100
AcDbHatch
 10
0.0
 20
0.0
 30
0.0
210
0.0
220
0.0
230
1.0
  2
ANSI37
 70
     0
 71
     0
 91
        1
 92
        7
 72
     0
 73
     1
 93
       10
 10
112.925
 20
126.85
 10
112.925
 20
126.525
 10
111.975
 20
125.575
 10
110.7
 20
125.575
 10
109.75
 20
126.525
 10
109.75
 20
127.8
 10
110.7
 20
128.75
 10
111.975
 20
128.75
 10
112.925
 20
127.8
 10
112.925
 20
127.175
 97
        1
330
7A2
 75
     0
 76
     1
 52
0.0
 41
0.25
 77
     0
 78
     2
 53
45.0
 43
0.0
 44
0.0
 45
-0.5612660075668221
 46
0.5612660075668221
 79
     0
 53
135.0
 43
0.0
 44
0.0
 45
-0.5612660075668221
 46
-0.5612660075668221
 79
     0
 47
0.651316
 98
        1
 10
0.0
 20
0.0
  0
LWPOLYLINE
  5
7A2
330
11D
100
AcDbEntity
  8
0
370
    20
100
AcDbPolyline
 90
       10
 70
     1
 43
0.0
 10
112.925
 20
126.85
 10
112.925
 20
126.525
 10
111.975
 20
125.575
 10
110.7
 20
125.575
 10
109.75
 20
126.525
 10
109.75
 20
127.8
 10
110.7
 20
128.75
 10
111.975
 20
128.75
 10
112.925
 20
127.8
 10
112.925
 20
127.175
  0
CIRCLE
  5
7B9
330
11D
100
AcDbEntity
  8
0
370
    20
100
AcDbCircle
 10
111.35
 20
127.175
 30
0.0
 40
1.575
  0
LINE
  5
7BC
330
11D
100
AcDbEntity
  8
0
 62
     7
370
    60
100
AcDbLine
 10
97.07500000000001
 20
128.125
 30
0.0
 11
85.0
 21
128.125
 31
0.0
  0
LINE
  5
7BF
330
11D
100
AcDbEntity
  8
0
 62
     7
370
    60
100
AcDbLine
 10
99.6
 20
128.125
 30
0.0
 11
102.45
 21
128.125
 31
0.0
  0
LINE
  5
7C2
330
11D
100
AcDbEntity
  8
0
 62
     7
370
    60
100
AcDbLine
 10
104.375
 20
128.125
 30
0.0
 11
109.125
 21
128.125
 31
0.0
  0
LINE
  5
7C5
330
11D
100
AcDbEntity
  8
0
 62
     7
370
    60
100
AcDbLine
 10
112.3
 20
128.125
 30
0.0
 11
128.15
 21
128.125
 31
0.0
  0
LINE
  5
7C8
330
11D
100
AcDbEntity
  8
0
370
    20
100
AcDbLine
 10
67.875
 20
131.6
 30
0.0
 11
69.47499999999999
 21
131.6
 31
0.0
  0
LINE
  5
7CB
330
11D
100
AcDbEntity
  8
0
370
    20
100
AcDbLine
 10
67.875
 20
89.1
 30
0.0
 11
69.47499999999999
 21
89.1
 31
0.0
  0
LINE
  5
7CE
330
11D
100
AcDbEntity
  8
0
370
    20
100
AcDbLine
 10
67.875
 20
131.6
 30
0.0
 11
67.875
 21
111.3
 31
0.0
  0
LINE
  5
7D1
330
11D
100
AcDbEntity
  8
0
370
    20
100
AcDbLine
 10
69.47499999999999
 20
131.6
 30
0.0
 11
69.47499999999999
 21
111.3
 31
0.0
  0
LINE
  5
7D4
330
11D
100
AcDbEntity
  8
0
370
    20
100
AcDbLine
 10
69.47499999999999
 20
111.3
 30
0.0
 11
69.47499999999999
 21
91.95
 31
0.0
  0
LINE
  5
7D7
330
11D
100
AcDbEntity
  8
0
370
    20
100
AcDbLine
 10
69.47499999999999
 20
91.95
 30
0.0
 11
69.47499999999999
 21
89.1
 31
0.0
  0
LINE
  5
7DA
330
11D
100
AcDbEntity
  8
0
370
    20
100
AcDbLine
 10
67.875
 20
111.3
 30
0.0
 11
67.875
 21
91.95
 31
0.0
  0
LINE
  5
7DD
330
11D
100
AcDbEntity
  8
0
370
    20
100
AcDbLine
 10
67.875
 20
91.95
 30
0.0
 11
67.875
 21
89.1
 31
0.0
  0
LINE
  5
7E0
330
11D
100
AcDbEntity
  8
0
370
    20
100
AcDbLine
 10
83.1
 20
81.17499999999999
 30
0.0
 11
84.7
 21
81.17499999999999
 31
0.0
  0
LINE
  5
7E3
330
11D
100
AcDbEntity
  8
0
370
    20
100
AcDbLine
 10
83.1
 20
93.84999999999999
 30
0.0
 11
83.1
 21
91.95
 31
0.0
  0
LINE
  5
7E6
330
11D
100
AcDbEntity
  8
0
370
    20
100
AcDbLine
 10
84.7
 20
93.84999999999999
 30
0.0
 11
84.7
 21
91.95
 31
0.0
  0
LINE
  5
7E9
330
11D
100
AcDbEntity
  8
0
370
    20
100
AcDbLine
 10
84.7
 20
93.84999999999999
 30
0.0
 11
84.7
 21
83.375
 31
0.0
  0
LINE
  5
7EC
330
11D
100
AcDbEntity
  8
0
370
    20
100
AcDbLine
 10
84.7
 20
83.7
 30
0.0
 11
84.7
 21
81.17499999999999
 31
0.0
  0
LINE
  5
7EF
330
11D
100
AcDbEntity
  8
0
370
    20
100
AcDbLine
 10
83.1
 20
93.84999999999999
 30
0.0
 11
83.1
 21
83.375
 31
0.0
  0
LINE
  5
7F2
330
11D
100
AcDbEntity
  8
0
370
    20
100
AcDbLine
 10
83.1
 20
83.7
 30
0.0
 11
83.1
 21
81.17499999999999
 31
0.0
  0
LINE
  5
7F5
330
11D
100
AcDbEntity
  8
0
370
    20
100
AcDbLine
 10
98.02500000000001
 20
72.275
 30
0.0
 11
99.6
 21
72.275
 31
0.0
  0
LINE
  5
7F8
330
11D
100
AcDbEntity
  8
0
370
    20
100
AcDbLine
 10
98.02500000000001
 20
82.42499999999999
 30
0.0
 11
98.02500000000001
 21
72.275
 31
0.0
  0
LINE
  5
7FB
330
11D
100
AcDbEntity
  8
0
370
    20
100
AcDbLine
 10
99.6
 20
82.42499999999999
 30
0.0
 11
99.6
 21
72.275
 31
0.0
  0
LINE
  5
7FE
330
11D
100
AcDbEntity
  8
0
370
    20
100
AcDbLine
 10
128.8
 20
55.475
 30
0.0
 11
130.375
 21
55.475
 31
0.0
  0
LINE
  5
801
330
11D
100
AcDbEntity
  8
0
370
    20
100
AcDbLine
 10
130.375
 20
82.42499999999999
 30
0.0
 11
130.375
 21
55.475
 31
0.0
  0
LINE
  5
804
330
11D
100
AcDbEntity
  8
0
370
    20
100
AcDbLine
 10
128.8
 20
82.42499999999999
 30
0.0
 11
128.8
 21
55.475
 31
0.0
  0
LINE
  5
807
330
11D
100
AcDbEntity
  8
0
370
    20
100
AcDbLine
 10
152.9
 20
42.77499999999999
 30
0.0
 11
154.5
 21
42.77499999999999
 31
0.0
  0
LINE
  5
80A
330
11D
100
AcDbEntity
  8
0
370
    20
100
AcDbLine
 10
154.5
 20
82.42499999999999
 30
0.0
 11
154.5
 21
42.77499999999999
 31
0.0
  0
LINE
  5
80D
330
11D
100
AcDbEntity
  8
0
370
    20
100
AcDbLine
 10
152.9
 20
82.42499999999999
 30
0.0
 11
152.9
 21
42.77499999999999
 31
0.0
  0
LINE
  5
810
330
11D
100
AcDbEntity
  8
0
370
    20
100
AcDbLine
 10
8.875
 20
129.075
 30
0.0
 11
154.8
 21
48.5
 31
0.0
  0
LINE
  5
813
330
11D
100
AcDbEntity
  8
0
370
    20
100
AcDbLine
 10
9.824999999999999
 20
130.35
 30
0.0
 11
155.75
 21
49.75
 31
0.0
  0
LINE
  5
816
330
11D
100
AcDbEntity
  8
0
370
    20
100
AcDbLine
 10
154.5
 20
82.75
 30
0.0
 11
128.15
 21
62.77499999999999
 31
0.0
  0
LINE
  5
819
330
11D
100
AcDbEntity
  8
0
370
    20
100
AcDbLine
 10
82.15000000000001
 20
127.475
 30
0.0
 11
48.525
 21
106.55
 31
0.0
  0
LINE
  5
81C
330
11D
100
AcDbEntity
  8
0
370
    20
100
AcDbLine
 10
88.49999999999999
 20
127.8
 30
0.0
 11
132.925
 21
99.25
 31
0.0
  0
LINE
  5
81F
330
11D
100
AcDbEntity
  8
0
370
    20
100
AcDbLine
 10
83.42499999999999
 20
125.9
 30
0.0
 11
49.8
 21
104.95
 31
0.0
  0
HATCH
  5
822
330
11D
100
AcDbEntity
  8
0
100
AcDbHatch
 10
0.0
 20
0.0
 30
0.0
210
0.0
220
0.0
230
1.0
  2
ANSI37
 70
     0
 71
     0
 91
        1
 92
        7
 72
     0
 73
     1
 93
       10
 10
90.72499999999999
 20
126.525
 10
90.72499999999999
 20
126.225
 10
89.775
 20
125.275
 10
88.49999999999999
 20
125.275
 10
87.55
 20
126.225
 10
87.55
 20
127.475
 10
88.49999999999999
 20
128.425
 10
89.775
 20
128.425
 10
90.72499999999999
 20
127.475
 10
90.72499999999999
 20
126.85
 97
        1
330
825
 75
     0
 76
     1
 52
0.0
 41
0.25
 77
     0
 78
     2
 53
45.0
 43
0.0
 44
0.0
 45
-0.5612660075668221
 46
0.5612660075668221
 79
     0
 53
135.0
 43
0.0
 44
0.0
 45
-0.5612660075668221
 46
-0.5612660075668221
 79
     0
 47
0.651316
 98
        1
 10
0.0
 20
0.0
  0
LWPOLYLINE
  5
825
330
11D
100
AcDbEntity
  8
0
370
    20
100
AcDbPolyline
 90
       10
 70
     1
 43
0.0
 10
90.72499999999999
 20
126.525
 10
90.72499999999999
 20
126.225
 10
89.775
 20
125.275
 10
88.49999999999999
 20
125.275
 10
87.55
 20
126.225
 10
87.55
 20
127.475
 10
88.49999999999999
 20
128.425
 10
89.775
 20
128.425
 10
90.72499999999999
 20
127.475
 10
90.72499999999999
 20
126.85
  0
CIRCLE
  5
83C
330
11D
100
AcDbEntity
  8
0
370
    20
100
AcDbCircle
 10
89.12499999999999
 20
126.85
 30
0.0
 40
1.575
  0
HATCH
  5
83F
330
11D
100
AcDbEntity
  8
0
100
AcDbHatch
 10
0.0
 20
0.0
 30
0.0
210
0.0
220
0.0
230
1.0
  2
ANSI37
 70
     0
 71
     0
 91
        1
 92
        7
 72
     0
 73
     1
 93
       10
 10
131.325
 20
120.5
 10
131.325
 20
120.2
 10
130.375
 20
119.225
 10
129.1
 20
119.225
 10
128.15
 20
120.2
 10
128.15
 20
121.45
 10
129.1
 20
122.4
 10
130.375
 20
122.4
 10
131.325
 20
121.45
 10
131.325
 20
120.825
 97
        1
330
842
 75
     0
 76
     1
 52
0.0
 41
0.25
 77
     0
 78
     2
 53
45.0
 43
0.0
 44
0.0
 45
-0.5612660075668221
 46
0.5612660075668221
 79
     0
 53
135.0
 43
0.0
 44
0.0
 45
-0.5612660075668221
 46
-0.5612660075668221
 79
     0
 47
0.651316
 98
        1
 10
0.0
 20
0.0
  0
LWPOLYLINE
  5
842
330
11D
100
AcDbEntity
  8
0
370
    20
100
AcDbPolyline
 90
       10
 70
     1
 43
0.0
 10
131.325
 20
120.5
 10
131.325
 20
120.2
 10
130.375
 20
119.225
 10
129.1
 20
119.225
 10
128.15
 20
120.2
 10
128.15
 20
121.45
 10
129.1
 20
122.4
 10
130.375
 20
122.4
 10
131.325
 20
121.45
 10
131.325
 20
120.825
  0
CIRCLE
  5
859
330
11D
100
AcDbEntity
  8
0
370
    20
100
AcDbCircle
 10
129.75
 20
120.825
 30
0.0
 40
1.575
  0
HATCH
  5
85C
330
11D
100
AcDbEntity
  8
0
100
AcDbHatch
 10
0.0
 20
0.0
 30
0.0
210
0.0
220
0.0
230
1.0
  2
ANSI37
 70
     0
 71
     0
 91
        1
 92
        7
 72
     0
 73
     1
 93
       10
 10
131.325
 20
100.2
 10
131.325
 20
99.875
 10
130.375
 20
98.925
 10
129.1
 20
98.925
 10
128.15
 20
99.875
 10
128.15
 20
101.15
 10
129.1
 20
102.1
 10
130.375
 20
102.1
 10
131.325
 20
101.15
 10
131.325
 20
100.525
 97
        1
330
85F
 75
     0
 76
     1
 52
0.0
 41
0.25
 77
     0
 78
     2
 53
45.0
 43
0.0
 44
0.0
 45
-0.5612660075668221
 46
0.5612660075668221
 79
     0
 53
135.0
 43
0.0
 44
0.0
 45
-0.5612660075668221
 46
-0.5612660075668221
 79
     0
 47
0.651316
 98
        1
 10
0.0
 20
0.0
  0
LWPOLYLINE
  5
85F
330
11D
100
AcDbEntity
  8
0
370
    20
100
AcDbPolyline
 90
       10
 70
     1
 43
0.0
 10
131.325
 20
100.2
 10
131.325
 20
99.875
 10
130.375
 20
98.925
 10
129.1
 20
98.925
 10
128.15
 20
99.875
 10
128.15
 20
101.15
 10
129.1
 20
102.1
 10
130.375
 20
102.1
 10
131.325
 20
101.15
 10
131.325
 20
100.525
  0
CIRCLE
  5
876
330
11D
100
AcDbEntity
  8
0
370
    20
100
AcDbCircle
 10
129.75
 20
100.525
 30
0.0
 40
1.575
  0
HATCH
  5
879
330
11D
100
AcDbEntity
  8
0
100
AcDbHatch
 10
0.0
 20
0.0
 30
0.0
210
0.0
220
0.0
230
1.0
  2
ANSI37
 70
     0
 71
     0
 91
        1
 92
        7
 72
     0
 73
     1
 93
       10
 10
100.55
 20
120.2
 10
100.55
 20
119.875
 10
99.6
 20
118.925
 10
98.32500000000001
 20
118.925
 10
97.375
 20
119.875
 10
97.375
 20
121.15
 10
98.32500000000001
 20
122.1
 10
99.6
 20
122.1
 10
100.55
 20
121.15
 10
100.55
 20
120.5
 97
        1
330
87C
 75
     0
 76
     1
 52
0.0
 41
0.25
 77
     0
 78
     2
 53
45.0
 43
0.0
 44
0.0
 45
-0.5612660075668221
 46
0.5612660075668221
 79
     0
 53
135.0
 43
0.0
 44
0.0
 45
-0.5612660075668221
 46
-0.5612660075668221
 79
     0
 47
0.651316
 98
        1
 10
0.0
 20
0.0
  0
LWPOLYLINE
  5
87C
330
11D
100
AcDbEntity
  8
0
370
    20
100
AcDbPolyline
 90
       10
 70
     1
 43
0.0
 10
100.55
 20
120.2
 10
100.55
 20
119.875
 10
99.6
 20
118.925
 10
98.32500000000001
 20
118.925
 10
97.375
 20
119.875
 10
97.375
 20
121.15
 10
98.32500000000001
 20
122.1
 10
99.6
 20
122.1
 10
100.55
 20
121.15
 10
100.55
 20
120.5
  0
CIRCLE
  5
893
330
11D
100
AcDbEntity
  8
0
370
    20
100
AcDbCircle
 10
98.975
 20
120.5
 30
0.0
 40
1.575
  0
HATCH
  5
896
330
11D
100
AcDbEntity
  8
0
100
AcDbHatch
 10
0.0
 20
0.0
 30
0.0
210
0.0
220
0.0
230
1.0
  2
ANSI37
 70
     0
 71
     0
 91
        1
 92
        7
 72
     0
 73
     1
 93
       10
 10
100.55
 20
98.625
 10
100.55
 20
98.3
 10
99.6
 20
97.34999999999999
 10
98.32500000000001
 20
97.34999999999999
 10
97.375
 20
98.3
 10
97.375
 20
99.57500000000001
 10
98.32500000000001
 20
100.525
 10
99.6
 20
100.525
 10
100.55
 20
99.57500000000001
 10
100.55
 20
98.925
 97
        1
330
899
 75
     0
 76
     1
 52
0.0
 41
0.25
 77
     0
 78
     2
 53
45.0
 43
0.0
 44
0.0
 45
-0.5612660075668221
 46
0.5612660075668221
 79
     0
 53
135.0
 43
0.0
 44
0.0
 45
-0.5612660075668221
 46
-0.5612660075668221
 79
     0
 47
0.651316
 98
        1
 10
0.0
 20
0.0
  0
LWPOLYLINE
  5
899
330
11D
100
AcDbEntity
  8
0
370
    20
100
AcDbPolyline
 90
       10
 70
     1
 43
0.0
 10
100.55
 20
98.625
 10
100.55
 20
98.3
 10
99.6
 20
97.34999999999999
 10
98.32500000000001
 20
97.34999999999999
 10
97.375
 20
98.3
 10
97.375
 20
99.57500000000001
 10
98.32500000000001
 20
100.525
 10
99.6
 20
100.525
 10
100.55
 20
99.57500000000001
 10
100.55
 20
98.925
  0
CIRCLE
  5
8B0
330
11D
100
AcDbEntity
  8
0
370
    20
100
AcDbCircle
 10
98.975
 20
98.925
 30
0.0
 40
1.575
  0
HATCH
  5
8B3
330
11D
100
AcDbEntity
  8
0
100
AcDbHatch
 10
0.0
 20
0.0
 30
0.0
210
0.0
220
0.0
230
1.0
  2
ANSI37
 70
     0
 71
     0
 91
        1
 92
        7
 72
     0
 73
     1
 93
       10
 10
85.65000000000001
 20
88.15000000000001
 10
85.65000000000001
 20
87.825
 10
84.7
 20
86.875
 10
83.42499999999999
 20
86.875
 10
82.475
 20
87.825
 10
82.475
 20
89.1
 10
83.42499999999999
 20
90.05
 10
84.7
 20
90.05
 10
85.65000000000001
 20
89.1
 10
85.65000000000001
 20
88.475
 97
        1
330
8B6
 75
     0
 76
     1
 52
0.0
 41
0.25
 77
     0
 78
     2
 53
45.0
 43
0.0
 44
0.0
 45
-0.5612660075668221
 46
0.5612660075668221
 79
     0
 53
135.0
 43
0.0
 44
0.0
 45
-0.5612660075668221
 46
-0.5612660075668221
 79
     0
 47
0.651316
 98
        1
 10
0.0
 20
0.0
  0
LWPOLYLINE
  5
8B6
330
11D
100
AcDbEntity
  8
0
370
    20
100
AcDbPolyline
 90
       10
 70
     1
 43
0.0
 10
85.65000000000001
 20
88.15000000000001
 10
85.65000000000001
 20
87.825
 10
84.7
 20
86.875
 10
83.42499999999999
 20
86.875
 10
82.475
 20
87.825
 10
82.475
 20
89.1
 10
83.42499999999999
 20
90.05
 10
84.7
 20
90.05
 10
85.65000000000001
 20
89.1
 10
85.65000000000001
 20
88.475
  0
CIRCLE
  5
8CD
330
11D
100
AcDbEntity
  8
0
370
    20
100
AcDbCircle
 10
84.04999999999999
 20
88.475
 30
0.0
 40
1.575
  0
HATCH
  5
8D0
330
11D
100
AcDbEntity
  8
0
100
AcDbHatch
 10
0.0
 20
0.0
 30
0.0
210
0.0
220
0.0
230
1.0
  2
ANSI37
 70
     0
 71
     0
 91
        1
 92
        7
 72
     0
 73
     1
 93
       10
 10
70.425
 20
96.70000000000001
 10
70.425
 20
96.4
 10
69.47499999999999
 20
95.44999999999999
 10
68.2
 20
95.44999999999999
 10
67.25
 20
96.4
 10
67.25
 20
97.675
 10
68.2
 20
98.625
 10
69.47499999999999
 20
98.625
 10
70.425
 20
97.675
 10
70.425
 20
97.025
 97
        1
330
8D3
 75
     0
 76
     1
 52
0.0
 41
0.25
 77
     0
 78
     2
 53
45.0
 43
0.0
 44
0.0
 45
-0.5612660075668221
 46
0.5612660075668221
 79
     0
 53
135.0
 43
0.0
 44
0.0
 45
-0.5612660075668221
 46
-0.5612660075668221
 79
     0
 47
0.651316
 98
        1
 10
0.0
 20
0.0
  0
LWPOLYLINE
  5
8D3
330
11D
100
AcDbEntity
  8
0
370
    20
100
AcDbPolyline
 90
       10
 70
     1
 43
0.0
 10
70.425
 20
96.70000000000001
 10
70.425
 20
96.4
 10
69.47499999999999
 20
95.44999999999999
 10
68.2
 20
95.44999999999999
 10
67.25
 20
96.4
 10
67.25
 20
97.675
 10
68.2
 20
98.625
 10
69.47499999999999
 20
98.625
 10
70.425
 20
97.675
 10
70.425
 20
97.025
  0
CIRCLE
  5
8EA
330
11D
100
AcDbEntity
  8
0
370
    20
100
AcDbCircle
 10
68.825
 20
97.025
 30
0.0
 40
1.575
  0
HATCH
  5
8ED
330
11D
100
AcDbEntity
  8
0
100
AcDbHatch
 10
0.0
 20
0.0
 30
0.0
210
0.0
220
0.0
230
1.0
  2
ANSI37
 70
     0
 71
     0
 91
        1
 92
        7
 72
     0
 73
     1
 93
       10
 10
70.09999999999999
 20
117.65
 10
70.09999999999999
 20
117.325
 10
69.15
 20
116.375
 10
67.875
 20
116.375
 10
66.92499999999999
 20
117.325
 10
66.92499999999999
 20
118.6
 10
67.875
 20
119.55
 10
69.15
 20
119.55
 10
70.09999999999999
 20
118.6
 10
70.09999999999999
 20
117.975
 97
        1
330
8F0
 75
     0
 76
     1
 52
0.0
 41
0.25
 77
     0
 78
     2
 53
45.0
 43
0.0
 44
0.0
 45
-0.5612660075668221
 46
0.5612660075668221
 79
     0
 53
135.0
 43
0.0
 44
0.0
 45
-0.5612660075668221
 46
-0.5612660075668221
 79
     0
 47
0.651316
 98
        1
 10
0.0
 20
0.0
  0
LWPOLYLINE
  5
8F0
330
11D
100
AcDbEntity
  8
0
370
    20
100
AcDbPolyline
 90
       10
 70
     1
 43
0.0
 10
70.09999999999999
 20
117.65
 10
70.09999999999999
 20
117.325
 10
69.15
 20
116.375
 10
67.875
 20
116.375
 10
66.92499999999999
 20
117.325
 10
66.92499999999999
 20
118.6
 10
67.875
 20
119.55
 10
69.15
 20
119.55
 10
70.09999999999999
 20
118.6
 10
70.09999999999999
 20
117.975
  0
CIRCLE
  5
907
330
11D
100
AcDbEntity
  8
0
370
    20
100
AcDbCircle
 10
68.525
 20
117.975
 30
0.0
 40
1.575
  0
HATCH
  5
90A
330
11D
100
AcDbEntity
  8
0
100
AcDbHatch
 10
0.0
 20
0.0
 30
0.0
210
0.0
220
0.0
230
1.0
  2
ANSI37
 70
     0
 71
     0
 91
        1
 92
        7
 72
     0
 73
     1
 93
       10
 10
52.325
 20
106.55
 10
52.325
 20
106.225
 10
51.375
 20
105.275
 10
50.125
 20
105.275
 10
49.15
 20
106.225
 10
49.15
 20
107.5
 10
50.125
 20
108.45
 10
51.375
 20
108.45
 10
52.325
 20
107.5
 10
52.325
 20
106.875
 97
        1
330
90D
 75
     0
 76
     1
 52
0.0
 41
0.25
 77
     0
 78
     2
 53
45.0
 43
0.0
 44
0.0
 45
-0.5612660075668221
 46
0.5612660075668221
 79
     0
 53
135.0
 43
0.0
 44
0.0
 45
-0.5612660075668221
 46
-0.5612660075668221
 79
     0
 47
0.651316
 98
        1
 10
0.0
 20
0.0
  0
LWPOLYLINE
  5
90D
330
11D
100
AcDbEntity
  8
0
370
    20
100
AcDbPolyline
 90
       10
 70
     1
 43
0.0
 10
52.325
 20
106.55
 10
52.325
 20
106.225
 10
51.375
 20
105.275
 10
50.125
 20
105.275
 10
49.15
 20
106.225
 10
49.15
 20
107.5
 10
50.125
 20
108.45
 10
51.375
 20
108.45
 10
52.325
 20
107.5
 10
52.325
 20
106.875
  0
CIRCLE
  5
924
330
11D
100
AcDbEntity
  8
0
370
    20
100
AcDbCircle
 10
50.75
 20
106.875
 30
0.0
 40
1.575
  0
HATCH
  5
927
330
11D
100
AcDbEntity
  8
0
100
AcDbHatch
 10
0.0
 20
0.0
 30
0.0
210
0.0
220
0.0
230
1.0
  2
ANSI37
 70
     0
 71
     0
 91
        1
 92
        7
 72
     0
 73
     1
 93
       10
 10
100.55
 20
80.525
 10
100.55
 20
80.22499999999999
 10
99.6
 20
79.27500000000001
 10
98.32500000000001
 20
79.27500000000001
 10
97.375
 20
80.22499999999999
 10
97.375
 20
81.47499999999999
 10
98.32500000000001
 20
82.42499999999999
 10
99.6
 20
82.42499999999999
 10
100.55
 20
81.47499999999999
 10
100.55
 20
80.84999999999999
 97
        1
330
92A
 75
     0
 76
     1
 52
0.0
 41
0.25
 77
     0
 78
     2
 53
45.0
 43
0.0
 44
0.0
 45
-0.5612660075668221
 46
0.5612660075668221
 79
     0
 53
135.0
 43
0.0
 44
0.0
 45
-0.5612660075668221
 46
-0.5612660075668221
 79
     0
 47
0.651316
 98
        1
 10
0.0
 20
0.0
  0
LWPOLYLINE
  5
92A
330
11D
100
AcDbEntity
  8
0
370
    20
100
AcDbPolyline
 90
       10
 70
     1
 43
0.0
 10
100.55
 20
80.525
 10
100.55
 20
80.22499999999999
 10
99.6
 20
79.27500000000001
 10
98.32500000000001
 20
79.27500000000001
 10
97.375
 20
80.22499999999999
 10
97.375
 20
81.47499999999999
 10
98.32500000000001
 20
82.42499999999999
 10
99.6
 20
82.42499999999999
 10
100.55
 20
81.47499999999999
 10
100.55
 20
80.84999999999999
  0
CIRCLE
  5
941
330
11D
100
AcDbEntity
  8
0
370
    20
100
AcDbCircle
 10
98.975
 20
80.84999999999999
 30
0.0
 40
1.575
  0
HATCH
  5
944
330
11D
100
AcDbEntity
  8
0
100
AcDbHatch
 10
0.0
 20
0.0
 30
0.0
210
0.0
220
0.0
230
1.0
  2
ANSI37
 70
     0
 71
     0
 91
        1
 92
        7
 72
     0
 73
     1
 93
       10
 10
131.0
 20
80.84999999999999
 10
131.0
 20
80.525
 10
130.05
 20
79.575
 10
128.8
 20
79.575
 10
127.85
 20
80.525
 10
127.85
 20
81.79999999999999
 10
128.8
 20
82.75
 10
130.05
 20
82.75
 10
131.0
 20
81.79999999999999
 10
131.0
 20
81.17499999999999
 97
        1
330
947
 75
     0
 76
     1
 52
0.0
 41
0.25
 77
     0
 78
     2
 53
45.0
 43
0.0
 44
0.0
 45
-0.5612660075668221
 46
0.5612660075668221
 79
     0
 53
135.0
 43
0.0
 44
0.0
 45
-0.5612660075668221
 46
-0.5612660075668221
 79
     0
 47
0.651316
 98
        1
 10
0.0
 20
0.0
  0
LWPOLYLINE
  5
947
330
11D
100
AcDbEntity
  8
0
370
    20
100
AcDbPolyline
 90
       10
 70
     1
 43
0.0
 10
131.0
 20
80.84999999999999
 10
131.0
 20
80.525
 10
130.05
 20
79.575
 10
128.8
 20
79.575
 10
127.85
 20
80.525
 10
127.85
 20
81.79999999999999
 10
128.8
 20
82.75
 10
130.05
 20
82.75
 10
131.0
 20
81.79999999999999
 10
131.0
 20
81.17499999999999
  0
CIRCLE
  5
95E
330
11D
100
AcDbEntity
  8
0
370
    20
100
AcDbCircle
 10
129.425
 20
81.17499999999999
 30
0.0
 40
1.575
  0
HATCH
  5
961
330
11D
100
AcDbEntity
  8
0
100
AcDbHatch
 10
0.0
 20
0.0
 30
0.0
210
0.0
220
0.0
230
1.0
  2
ANSI37
 70
     0
 71
     0
 91
        1
 92
        7
 72
     0
 73
     1
 93
       10
 10
155.125
 20
80.525
 10
155.125
 20
80.22499999999999
 10
154.175
 20
79.27500000000001
 10
152.9
 20
79.27500000000001
 10
151.95
 20
80.22499999999999
 10
151.95
 20
81.47499999999999
 10
152.9
 20
82.42499999999999
 10
154.175
 20
82.42499999999999
 10
155.125
 20
81.47499999999999
 10
155.125
 20
80.84999999999999
 97
        1
330
964
 75
     0
 76
     1
 52
0.0
 41
0.25
 77
     0
 78
     2
 53
45.0
 43
0.0
 44
0.0
 45
-0.5612660075668221
 46
0.5612660075668221
 79
     0
 53
135.0
 43
0.0
 44
0.0
 45
-0.5612660075668221
 46
-0.5612660075668221
 79
     0
 47
0.651316
 98
        1
 10
0.0
 20
0.0
  0
LWPOLYLINE
  5
964
330
11D
100
AcDbEntity
  8
0
370
    20
100
AcDbPolyline
 90
       10
 70
     1
 43
0.0
 10
155.125
 20
80.525
 10
155.125
 20
80.22499999999999
 10
154.175
 20
79.27500000000001
 10
152.9
 20
79.27500000000001
 10
151.95
 20
80.22499999999999
 10
151.95
 20
81.47499999999999
 10
152.9
 20
82.42499999999999
 10
154.175
 20
82.42499999999999
 10
155.125
 20
81.47499999999999
 10
155.125
 20
80.84999999999999
  0
CIRCLE
  5
97B
330
11D
100
AcDbEntity
  8
0
370
    20
100
AcDbCircle
 10
153.525
 20
80.84999999999999
 30
0.0
 40
1.575
  0
LINE
  5
97E
330
11D
100
AcDbEntity
  8
0
370
    20
100
AcDbLine
 10
155.45
 20
81.47499999999999
 30
0.0
 11
129.1
 21
61.5
 31
0.0
  0
LINE
  5
981
330
11D
100
AcDbEntity
  8
0
370
    20
100
AcDbLine
 10
129.1
 20
61.5
 30
0.0
 11
128.15
 21
62.77499999999999
 31
0.0
  0
LINE
  5
984
330
11D
100
AcDbEntity
  8
0
370
    20
100
AcDbLine
 10
155.45
 20
81.47499999999999
 30
0.0
 11
154.175
 21
82.75
 31
0.0
  0
LINE
  5
987
330
11D
100
AcDbEntity
  8
0
370
    20
100
AcDbLine
 10
81.52500000000001
 20
87.5
 30
0.0
 11
82.475
 21
86.54999999999999
 31
0.0
  0
LINE
  5
98A
330
11D
100
AcDbEntity
  8
0
370
    20
100
AcDbLine
 10
131.65
 20
97.97499999999999
 30
0.0
 11
132.6
 21
99.25
 31
0.0
  0
LINE
  5
98D
330
11D
100
AcDbEntity
  8
0
370
    20
100
AcDbLine
 10
155.75
 20
49.75
 30
0.0
 11
155.125
 21
48.5
 31
0.0
  0
LINE
  5
990
330
11D
100
AcDbEntity
  8
0
370
    20
100
AcDbLine
 10
9.824999999999999
 20
130.025
 30
0.0
 11
8.875
 21
128.75
 31
0.0
  0
LINE
  5
993
330
11D
100
AcDbEntity
  8
0
370
    20
100
AcDbLine
 10
49.475
 20
104.95
 30
0.0
 11
48.2
 21
106.225
 31
0.0
  0
LWPOLYLINE
  5
996
330
11D
100
AcDbEntity
  8
0
370
    20
100
AcDbPolyline
 90
       13
 70
     0
 43
0.0
 10
10.15
 20
126.225
 10
13.625
 20
124.625
 10
16.8
 20
122.1
 10
20.6
 20
120.825
 10
25.675
 20
117.325
 10
30.125
 20
115.75
 10
36.15
 20
111.3
 10
42.5
 20
109.075
 10
47.9
 20
104.95
 10
54.875
 20
101.15
 10
61.225
 20
98.625
 10
66.92499999999999
 20
94.8
 10
71.675
 20
92.59999999999999
  0
LWPOLYLINE
  5
9B3
330
11D
100
AcDbEntity
  8
0
370
    20
100
AcDbPolyline
 90
       16
 70
     0
 43
0.0
 10
82.475
 20
86.54999999999999
 10
85.325
 20
84.35
 10
86.6
 20
83.375
 10
86.6
 20
82.75
 10
89.12499999999999
 20
82.42499999999999
 10
93.9
 20
80.525
 10
97.70000000000001
 20
77.675
 10
105.95
 20
74.5
 10
112.3
 20
71.65
 10
118.0
 20
68.15000000000001
 10
124.025
 20
64.34999999999999
 10
129.425
 20
61.5
 10
137.675
 20
57.05
 10
143.075
 20
53.25
 10
149.725
 20
50.075
 10
157.975
 20
46.9
  0
HATCH
  5
9D6
330
11D
100
AcDbEntity
  8
0
100
AcDbHatch
 10
0.0
 20
0.0
 30
0.0
210
0.0
220
0.0
230
1.0
  2
ANSI37
 70
     0
 71
     0
 91
        1
 92
        7
 72
     0
 73
     1
 93
       10
 10
131.65
 20
63.075
 10
131.65
 20
62.77499999999999
 10
130.7
 20
61.825
 10
129.425
 20
61.825
 10
128.475
 20
62.77499999999999
 10
128.475
 20
64.025
 10
129.425
 20
64.97499999999999
 10
130.7
 20
64.97499999999999
 10
131.65
 20
64.025
 10
131.65
 20
63.39999999999999
 97
        1
330
9D9
 75
     0
 76
     1
 52
0.0
 41
0.25
 77
     0
 78
     2
 53
45.0
 43
0.0
 44
0.0
 45
-0.5612660075668221
 46
0.5612660075668221
 79
     0
 53
135.0
 43
0.0
 44
0.0
 45
-0.5612660075668221
 46
-0.5612660075668221
 79
     0
 47
0.651316
 98
        1
 10
0.0
 20
0.0
  0
LWPOLYLINE
  5
9D9
330
11D
100
AcDbEntity
  8
0
370
    20
100
AcDbPolyline
 90
       10
 70
     1
 43
0.0
 10
131.65
 20
63.075
 10
131.65
 20
62.77499999999999
 10
130.7
 20
61.825
 10
129.425
 20
61.825
 10
128.475
 20
62.77499999999999
 10
128.475
 20
64.025
 10
129.425
 20
64.97499999999999
 10
130.7
 20
64.97499999999999
 10
131.65
 20
64.025
 10
131.65
 20
63.39999999999999
  0
CIRCLE
  5
9F0
330
11D
100
AcDbEntity
  8
0
370
    20
100
AcDbCircle
 10
130.05
 20
63.39999999999999
 30
0.0
 40
1.575
  0
HATCH
  5
9F3
330
11D
100
AcDbEntity
  8
0
100
AcDbHatch
 10
0.0
 20
0.0
 30
0.0
210
0.0
220
0.0
230
1.0
  2
ANSI37
 70
     0
 71
     0
 91
        1
 92
        7
 72
     0
 73
     1
 93
       10
 10
155.125
 20
49.75
 10
155.125
 20
49.45
 10
154.175
 20
48.5
 10
152.9
 20
48.5
 10
151.95
 20
49.45
 10
151.95
 20
50.7
 10
152.9
 20
51.65
 10
154.175
 20
51.65
 10
155.125
 20
50.7
 10
155.125
 20
50.075
 97
        1
330
9F6
 75
     0
 76
     1
 52
0.0
 41
0.25
 77
     0
 78
     2
 53
45.0
 43
0.0
 44
0.0
 45
-0.5612660075668221
 46
0.5612660075668221
 79
     0
 53
135.0
 43
0.0
 44
0.0
 45
-0.5612660075668221
 46
-0.5612660075668221
 79
     0
 47
0.651316
 98
        1
 10
0.0
 20
0.0
  0
LWPOLYLINE
  5
9F6
330
11D
100
AcDbEntity
  8
0
370
    20
100
AcDbPolyline
 90
       10
 70
     1
 43
0.0
 10
155.125
 20
49.75
 10
155.125
 20
49.45
 10
154.175
 20
48.5
 10
152.9
 20
48.5
 10
151.95
 20
49.45
 10
151.95
 20
50.7
 10
152.9
 20
51.65
 10
154.175
 20
51.65
 10
155.125
 20
50.7
 10
155.125
 20
50.075
  0
CIRCLE
  5
A0D
330
11D
100
AcDbEntity
  8
0
370
    20
100
AcDbCircle
 10
153.525
 20
50.075
 30
0.0
 40
1.575
  0
LINE
  5
A10
330
11D
100
AcDbEntity
  8
0
370
    20
100
AcDbLine
 10
133.875
 20
125.575
 30
0.0
 11
135.45
 21
124.325
 31
0.0
  0
LINE
  5
A13
330
11D
100
AcDbEntity
  8
0
 62
     7
370
    60
100
AcDbLine
 10
81.85
 20
128.125
 30
0.0
 11
69.775
 21
128.125
 31
0.0
  0
LINE
  5
A16
330
11D
100
AcDbEntity
  8
0
 62
     7
370
    60
100
AcDbLine
 10
66.92499999999999
 20
128.125
 30
0.0
 11
52.025
 21
128.125
 31
0.0
  0
LINE
  5
A19
330
11D
100
AcDbEntity
  8
0
 62
     7
370
    60
100
AcDbLine
 10
49.15
 20
128.125
 30
0.0
 11
15.525
 21
128.125
 31
0.0
  0
LINE
  5
A1C
330
11D
100
AcDbEntity
  8
0
370
    20
100
AcDbLine
 10
74.84999999999999
 20
126.225
 30
0.0
 11
74.84999999999999
 21
123.05
 31
0.0
  0
LINE
  5
A1F
330
11D
100
AcDbEntity
  8
0
370
    20
100
AcDbLine
 10
74.84999999999999
 20
120.825
 30
0.0
 11
74.84999999999999
 21
106.875
 31
0.0
  0
LINE
  5
A22
330
11D
100
AcDbEntity
  8
0
370
    20
100
AcDbLine
 10
76.45
 20
126.225
 30
0.0
 11
76.45
 21
124.0
 31
0.0
  0
LINE
  5
A25
330
11D
100
AcDbEntity
  8
0
370
    20
100
AcDbLine
 10
76.45
 20
121.775
 30
0.0
 11
76.45
 21
106.55
 31
0.0
  0
LINE
  5
A28
330
11D
100
AcDbEntity
  8
0
370
    20
100
AcDbLine
 10
88.825
 20
90.675
 30
0.0
 11
98.02500000000001
 21
90.675
 31
0.0
  0
LINE
  5
A2B
330
11D
100
AcDbEntity
  8
0
370
    20
100
AcDbLine
 10
99.6
 20
90.675
 30
0.0
 11
104.05
 21
90.675
 31
0.0
  0
LINE
  5
A2E
330
11D
100
AcDbEntity
  8
0
370
    20
100
AcDbLine
 10
86.6
 20
89.425
 30
0.0
 11
88.49999999999999
 21
89.425
 31
0.0
  0
LINE
  5
A31
330
11D
100
AcDbEntity
  8
0
370
    20
100
AcDbLine
 10
90.4
 20
89.425
 30
0.0
 11
92.3
 21
89.425
 31
0.0
  0
LINE
  5
A34
330
11D
100
AcDbEntity
  8
0
370
    20
100
AcDbLine
 10
93.9
 20
89.425
 30
0.0
 11
95.8
 21
89.425
 31
0.0
  0
LINE
  5
A37
330
11D
100
AcDbEntity
  8
0
370
    20
100
AcDbLine
 10
97.375
 20
89.425
 30
0.0
 11
98.02500000000001
 21
89.425
 31
0.0
  0
LINE
  5
A3A
330
11D
100
AcDbEntity
  8
0
370
    20
100
AcDbLine
 10
100.875
 20
89.425
 30
0.0
 11
102.775
 21
89.425
 31
0.0
  0
LINE
  5
A3D
330
11D
100
AcDbEntity
  8
0
370
    20
100
AcDbLine
 10
87.87499999999999
 20
88.475
 30
0.0
 11
89.775
 21
88.475
 31
0.0
  0
LINE
  5
A40
330
11D
100
AcDbEntity
  8
0
370
    20
100
AcDbLine
 10
91.675
 20
88.475
 30
0.0
 11
93.57499999999999
 21
88.475
 31
0.0
  0
LINE
  5
A43
330
11D
100
AcDbEntity
  8
0
370
    20
100
AcDbLine
 10
95.175
 20
88.475
 30
0.0
 11
97.07500000000001
 21
88.475
 31
0.0
  0
LINE
  5
A46
330
11D
100
AcDbEntity
  8
0
370
    20
100
AcDbLine
 10
99.6
 20
88.475
 30
0.0
 11
100.55
 21
88.475
 31
0.0
  0
LINE
  5
A49
330
11D
100
AcDbEntity
  8
0
370
    20
100
AcDbLine
 10
102.15
 20
88.475
 30
0.0
 11
104.05
 21
88.475
 31
0.0
  0
LINE
  5
A4C
330
11D
100
AcDbEntity
  8
0
370
    20
100
AcDbLine
 10
87.225
 20
87.5
 30
0.0
 11
88.825
 21
87.5
 31
0.0
  0
LINE
  5
A4F
330
11D
100
AcDbEntity
  8
0
370
    20
100
AcDbLine
 10
90.72499999999999
 20
87.5
 30
0.0
 11
92.62500000000001
 21
87.5
 31
0.0
  0
LINE
  5
A52
330
11D
100
AcDbEntity
  8
0
370
    20
100
AcDbLine
 10
94.19999999999999
 20
87.5
 30
0.0
 11
96.125
 21
87.5
 31
0.0
  0
LINE
  5
A55
330
11D
100
AcDbEntity
  8
0
370
    20
100
AcDbLine
 10
97.70000000000001
 20
87.5
 30
0.0
 11
98.02500000000001
 21
87.5
 31
0.0
  0
LINE
  5
A58
330
11D
100
AcDbEntity
  8
0
370
    20
100
AcDbLine
 10
101.2
 20
87.5
 30
0.0
 11
103.1
 21
87.5
 31
0.0
  0
LINE
  5
A5B
330
11D
100
AcDbEntity
  8
0
370
    20
100
AcDbLine
 10
88.825
 20
86.54999999999999
 30
0.0
 11
89.775
 21
86.54999999999999
 31
0.0
  0
LINE
  5
A5E
330
11D
100
AcDbEntity
  8
0
370
    20
100
AcDbLine
 10
91.675
 20
86.54999999999999
 30
0.0
 11
93.57499999999999
 21
86.54999999999999
 31
0.0
  0
LINE
  5
A61
330
11D
100
AcDbEntity
  8
0
370
    20
100
AcDbLine
 10
95.175
 20
86.54999999999999
 30
0.0
 11
97.07500000000001
 21
86.54999999999999
 31
0.0
  0
LINE
  5
A64
330
11D
100
AcDbEntity
  8
0
370
    20
100
AcDbLine
 10
99.6
 20
86.54999999999999
 30
0.0
 11
100.55
 21
86.54999999999999
 31
0.0
  0
LINE
  5
A67
330
11D
100
AcDbEntity
  8
0
370
    20
100
AcDbLine
 10
102.15
 20
86.54999999999999
 30
0.0
 11
104.05
 21
86.54999999999999
 31
0.0
  0
LINE
  5
A6A
330
11D
100
AcDbEntity
  8
0
370
    20
100
AcDbLine
 10
86.925
 20
85.29999999999999
 30
0.0
 11
87.87499999999999
 21
85.29999999999999
 31
0.0
  0
LINE
  5
A6D
330
11D
100
AcDbEntity
  8
0
370
    20
100
AcDbLine
 10
91.34999999999999
 20
85.29999999999999
 30
0.0
 11
92.62500000000001
 21
85.29999999999999
 31
0.0
  0
LINE
  5
A70
330
11D
100
AcDbEntity
  8
0
370
    20
100
AcDbLine
 10
94.19999999999999
 20
85.29999999999999
 30
0.0
 11
96.125
 21
85.29999999999999
 31
0.0
  0
LINE
  5
A73
330
11D
100
AcDbEntity
  8
0
370
    20
100
AcDbLine
 10
97.70000000000001
 20
85.29999999999999
 30
0.0
 11
98.02500000000001
 21
85.29999999999999
 31
0.0
  0
LINE
  5
A76
330
11D
100
AcDbEntity
  8
0
370
    20
100
AcDbLine
 10
101.2
 20
85.29999999999999
 30
0.0
 11
103.1
 21
85.29999999999999
 31
0.0
  0
LINE
  5
A79
330
11D
100
AcDbEntity
  8
0
370
    30
100
AcDbLine
 10
86.6
 20
86.25
 30
0.0
 11
86.6
 21
82.75
 31
0.0
  0
LINE
  5
A7C
330
11D
100
AcDbEntity
  8
0
370
    30
100
AcDbLine
 10
86.6
 20
82.75
 30
0.0
 11
92.62500000000001
 21
82.75
 31
0.0
  0
LINE
  5
A7F
330
11D
100
AcDbEntity
  8
0
370
    30
100
AcDbLine
 10
86.6
 20
93.22499999999999
 30
0.0
 11
86.6
 21
91.325
 31
0.0
  0
LINE
  5
A82
330
11D
100
AcDbEntity
  8
0
370
    30
100
AcDbLine
 10
86.6
 20
89.425
 30
0.0
 11
86.6
 21
88.15000000000001
 31
0.0
  0
LINE
  5
A85
330
11D
100
AcDbEntity
  8
0
370
    30
100
AcDbLine
 10
95.8
 20
82.75
 30
0.0
 11
98.02500000000001
 21
82.75
 31
0.0
  0
LINE
  5
A88
330
11D
100
AcDbEntity
  8
0
370
    30
100
AcDbLine
 10
99.6
 20
82.75
 30
0.0
 11
104.375
 21
82.75
 31
0.0
  0
LINE
  5
A8B
330
11D
100
AcDbEntity
  8
0
370
    20
100
AcDbLine
 10
112.3
 20
84.35
 30
0.0
 11
128.8
 21
84.35
 31
0.0
  0
LINE
  5
A8E
330
11D
100
AcDbEntity
  8
0
370
    20
100
AcDbLine
 10
130.375
 20
84.35
 30
0.0
 11
152.275
 21
84.35
 31
0.0
  0
ARC
  5
A91
330
11D
100
AcDbEntity
  8
0
370
    20
100
AcDbCircle
 10
128.15
 20
91.325
 30
0.0
 40
2.2
100
AcDbArc
 50
83.0
 51
277.0
  0
ARC
  5
A94
330
11D
100
AcDbEntity
  8
0
370
    20
100
AcDbCircle
 10
127.85
 20
91.325
 30
0.0
 40
5.7
100
AcDbArc
 50
297.0
 51
63.0
  0
ARC
  5
A97
330
11D
100
AcDbEntity
  8
0
370
    20
100
AcDbCircle
 10
127.85
 20
91.325
 30
0.0
 40
5.7
100
AcDbArc
 50
84.0
 51
276.0
  0
LINE
  5
A9A
330
11D
100
AcDbEntity
  8
0
370
    20
100
AcDbLine
 10
130.7
 20
96.4
 30
0.0
 11
141.475
 21
90.37499999999999
 31
0.0
  0
LINE
  5
A9D
330
11D
100
AcDbEntity
  8
0
370
    20
100
AcDbLine
 10
141.175
 20
88.77500000000001
 30
0.0
 11
130.7
 21
86.25
 31
0.0
  0
LINE
  5
AA0
330
11D
100
AcDbEntity
  8
0
370
    20
100
AcDbLine
 10
150.675
 20
87.2
 30
0.0
 11
130.7
 21
87.2
 31
0.0
  0
LINE
  5
AA3
330
11D
100
AcDbEntity
  8
0
370
    20
100
AcDbLine
 10
128.475
 20
87.2
 30
0.0
 11
114.525
 21
87.2
 31
0.0
  0
LINE
  5
AA6
330
11D
100
AcDbEntity
  8
0
370
    20
100
AcDbLine
 10
130.375
 20
109.725
 30
0.0
 11
130.375
 21
97.34999999999999
 31
0.0
  0
LINE
  5
AA9
330
11D
100
AcDbEntity
  8
0
370
    20
100
AcDbLine
 10
130.375
 20
82.125
 30
0.0
 11
130.375
 21
97.675
 31
0.0
  0
LINE
  5
AAC
330
11D
100
AcDbEntity
  8
0
370
    20
100
AcDbLine
 10
128.8
 20
109.725
 30
0.0
 11
128.8
 21
97.34999999999999
 31
0.0
  0
LINE
  5
AAF
330
11D
100
AcDbEntity
  8
0
370
    20
100
AcDbLine
 10
128.8
 20
81.47499999999999
 30
0.0
 11
128.8
 21
97.675
 31
0.0
  0
LINE
  5
AB2
330
11D
100
AcDbEntity
  8
0
370
    20
100
AcDbLine
 10
123.725
 20
96.4
 30
0.0
 11
128.8
 21
96.4
 31
0.0
  0
LINE
  5
AB5
330
11D
100
AcDbEntity
  8
0
370
    20
100
AcDbLine
 10
130.7
 20
96.4
 30
0.0
 11
131.975
 21
96.4
 31
0.0
  0
LINE
  5
AB8
330
11D
100
AcDbEntity
  8
0
370
    20
100
AcDbLine
 10
123.725
 20
87.2
 30
0.0
 11
128.8
 21
87.2
 31
0.0
  0
LINE
  5
ABB
330
11D
100
AcDbEntity
  8
0
370
    20
100
AcDbLine
 10
130.7
 20
87.2
 30
0.0
 11
131.975
 21
87.2
 31
0.0
  0
LINE
  5
ABE
330
11D
100
AcDbEntity
  8
0
370
    20
100
AcDbLine
 10
114.525
 20
84.35
 30
0.0
 11
128.8
 21
84.35
 31
0.0
  0
LINE
  5
AC1
330
11D
100
AcDbEntity
  8
0
370
    20
100
AcDbLine
 10
130.375
 20
84.35
 30
0.0
 11
150.675
 21
84.35
 31
0.0
  0
LINE
  5
AC4
330
11D
100
AcDbEntity
  8
0
370
    20
100
AcDbLine
 10
85.0
 20
82.42499999999999
 30
0.0
 11
85.0
 21
80.525
 31
0.0
  0
LINE
  5
AC7
330
11D
100
AcDbEntity
  8
0
370
    20
100
AcDbLine
 10
85.0
 20
80.525
 30
0.0
 11
156.075
 21
80.525
 31
0.0
  0
LINE
  5
ACA
330
11D
100
AcDbEntity
  8
0
370
    20
100
AcDbLine
 10
156.075
 20
80.525
 30
0.0
 11
156.075
 21
82.42499999999999
 31
0.0
  0
LINE
  5
ACD
330
11D
100
AcDbEntity
  8
0
370
    20
100
AcDbLine
 10
85.0
 20
82.42499999999999
 30
0.0
 11
93.25000000000001
 21
82.42499999999999
 31
0.0
  0
LINE
  5
AD0
330
11D
100
AcDbEntity
  8
0
370
    20
100
AcDbLine
 10
96.425
 20
82.42499999999999
 30
0.0
 11
156.075
 21
82.42499999999999
 31
0.0
  0
LINE
  5
AD3
330
11D
100
AcDbEntity
  8
0
370
    20
100
AcDbLine
 10
102.775
 20
92.59999999999999
 30
0.0
 11
102.775
 21
85.92499999999999
 31
0.0
  0
LINE
  5
AD6
330
11D
100
AcDbEntity
  8
0
370
    20
100
AcDbLine
 10
101.5
 20
85.92499999999999
 30
0.0
 11
101.5
 21
92.59999999999999
 31
0.0
  0
LWPOLYLINE
  5
AD9
330
11D
100
AcDbEntity
  8
0
370
    20
100
AcDbPolyline
 90
        2
 70
     0
 43
0.0
 10
113.875
 20
91.0
 10
115.475
 20
91.0
  0
LWPOLYLINE
  5
AE0
330
11D
100
AcDbEntity
  8
0
370
    20
100
AcDbPolyline
 90
        2
 70
     0
 43
0.0
 10
113.875
 20
89.725
 10
115.475
 20
89.725
  0
LWPOLYLINE
  5
AE7
330
11D
100
AcDbEntity
  8
0
370
    20
100
AcDbPolyline
 90
        2
 70
     0
 43
0.0
 10
113.875
 20
92.9
 10
115.475
 20
92.9
  0
LWPOLYLINE
  5
AEE
330
11D
100
AcDbEntity
  8
0
370
    20
100
AcDbPolyline
 90
        2
 70
     0
 43
0.0
 10
113.875
 20
91.95
 10
115.475
 20
91.95
  0
LWPOLYLINE
  5
AF5
330
11D
100
AcDbEntity
  8
0
370
    20
100
AcDbPolyline
 90
        7
 70
     0
 43
0.0
 10
102.775
 20
92.59999999999999
 10
104.05
 20
94.175
 10
106.275
 20
94.175
 10
107.85
 20
92.59999999999999
 10
109.45
 20
90.675
 10
111.65
 20
89.725
 10
113.875
 20
89.725
  0
LWPOLYLINE
  5
B06
330
11D
100
AcDbEntity
  8
0
370
    20
100
AcDbPolyline
 90
        8
 70
     0
 43
0.0
 10
113.875
 20
91.0
 10
111.65
 20
91.0
 10
110.4
 20
91.62499999999999
 10
108.8
 20
93.55
 10
106.9
 20
95.44999999999999
 10
103.4
 20
95.44999999999999
 10
102.15
 20
94.175
 10
101.5
 20
92.59999999999999
  0
LWPOLYLINE
  5
B19
330
11D
100
AcDbEntity
  8
0
370
    20
100
AcDbPolyline
 90
        6
 70
     0
 43
0.0
 10
111.65
 20
101.8
 10
111.35
 20
98.625
 10
111.35
 20
95.75000000000001
 10
112.3
 20
93.84999999999999
 10
112.925
 20
92.9
 10
113.875
 20
92.9
  0
LINE
  5
B28
330
11D
100
AcDbEntity
  8
0
370
    20
100
AcDbLine
 10
98.975
 20
138.9
 30
0.0
 11
102.45
 21
129.075
 31
0.0
  0
LINE
  5
B2B
330
11D
100
AcDbEntity
  8
0
370
    20
100
AcDbLine
 10
102.45
 20
129.075
 30
0.0
 11
105.625
 21
122.1
 31
0.0
  0
LINE
  5
B2E
330
11D
100
AcDbEntity
  8
0
370
    20
100
AcDbLine
 10
105.625
 20
122.1
 30
0.0
 11
107.525
 21
118.925
 31
0.0
  0
LINE
  5
B31
330
11D
100
AcDbEntity
  8
0
370
    20
100
AcDbLine
 10
107.525
 20
118.925
 30
0.0
 11
109.125
 21
116.375
 31
0.0
  0
LINE
  5
B34
330
11D
100
AcDbEntity
  8
0
370
    20
100
AcDbLine
 10
110.7
 20
104.95
 30
0.0
 11
109.75
 21
99.57500000000001
 31
0.0
  0
LINE
  5
B37
330
11D
100
AcDbEntity
  8
0
370
    20
100
AcDbLine
 10
109.75
 20
99.57500000000001
 30
0.0
 11
110.075
 21
95.12500000000001
 31
0.0
  0
LINE
  5
B3A
330
11D
100
AcDbEntity
  8
0
370
    20
100
AcDbLine
 10
110.075
 20
95.12500000000001
 30
0.0
 11
111.975
 21
91.95
 31
0.0
  0
LINE
  5
B3D
330
11D
100
AcDbEntity
  8
0
370
    20
100
AcDbLine
 10
111.975
 20
91.95
 30
0.0
 11
113.875
 21
91.95
 31
0.0
  0
LINE
  5
B40
330
11D
100
AcDbEntity
  8
0
370
    20
100
AcDbLine
 10
111.65
 20
101.8
 30
0.0
 11
112.3
 21
107.5
 31
0.0
  0
LINE
  5
B43
330
11D
100
AcDbEntity
  8
0
370
    20
100
AcDbLine
 10
110.4
 20
116.375
 30
0.0
 11
109.125
 21
118.925
 31
0.0
  0
LINE
  5
B46
330
11D
100
AcDbEntity
  8
0
370
    20
100
AcDbLine
 10
109.125
 20
118.925
 30
0.0
 11
106.575
 21
122.725
 31
0.0
  0
LINE
  5
B49
330
11D
100
AcDbEntity
  8
0
370
    20
100
AcDbLine
 10
106.575
 20
122.725
 30
0.0
 11
103.1
 21
130.65
 31
0.0
  0
LINE
  5
B4C
330
11D
100
AcDbEntity
  8
0
370
    20
100
AcDbLine
 10
103.1
 20
130.65
 30
0.0
 11
99.92499999999999
 21
139.225
 31
0.0
  0
LINE
  5
B4F
330
11D
100
AcDbEntity
  8
0
370
    20
100
AcDbLine
 10
110.4
 20
116.375
 30
0.0
 11
111.025
 21
113.2
 31
0.0
  0
LINE
  5
B52
330
11D
100
AcDbEntity
  8
0
370
    20
100
AcDbLine
 10
111.65
 20
111.0
 30
0.0
 11
111.975
 21
110.35
 31
0.0
  0
LINE
  5
B55
330
11D
100
AcDbEntity
  8
0
370
    20
100
AcDbLine
 10
87.87499999999999
 20
126.225
 30
0.0
 11
131.65
 21
97.97499999999999
 31
0.0
  0
LINE
  5
B58
330
11D
100
AcDbEntity
  8
0
370
    20
100
AcDbLine
 10
109.125
 20
116.375
 30
0.0
 11
109.45
 21
114.475
 31
0.0
  0
LINE
  5
B5B
330
11D
100
AcDbEntity
  8
0
370
    20
100
AcDbLine
 10
110.7
 20
106.55
 30
0.0
 11
110.7
 21
104.95
 31
0.0
  0
LINE
  5
B5E
330
11D
100
AcDbEntity
  8
0
370
    20
100
AcDbLine
 10
111.975
 20
109.725
 30
0.0
 11
111.65
 21
110.675
 31
0.0
  0
LINE
  5
B61
330
11D
100
AcDbEntity
  8
0
370
    20
100
AcDbLine
 10
110.075
 20
111.95
 30
0.0
 11
110.7
 21
108.775
 31
0.0
  0
POINT
  5
B64
330
11D
100
AcDbEntity
  8
0
100
AcDbPoint
 10
55.2
 20
50.925
 30
0.0
  0
LINE
  5
B67
330
11D
100
AcDbEntity
  8
0
370
    20
100
AcDbLine
 10
5.075
 20
129.4
 30
0.0
 11
10.15
 21
126.225
 31
0.0
  0
LWPOLYLINE
  5
B6A
330
11D
100
AcDbEntity
  8
0
370
    20
100
AcDbPolyline
 90
        3
 70
     0
 43
0.0
 10
23.475
 20
112.575
 10
26.95
 20
119.875
 10
24.725
 20
117.025
  0
LWPOLYLINE
  5
B73
330
11D
100
AcDbEntity
  8
0
370
    20
100
AcDbPolyline
 90
        3
 70
     0
 43
0.0
 10
59.95
 20
91.95
 10
67.54999999999999
 20
96.4
 10
63.75
 20
95.44999999999999
  0
LWPOLYLINE
  5
B7C
330
11D
100
AcDbEntity
  8
0
370
    20
100
AcDbPolyline
 90
        3
 70
     0
 43
0.0
 10
109.75
 20
78.95
 10
104.375
 20
86.875
 10
107.225
 20
84.35
  0
LWPOLYLINE
  5
B85
330
11D
100
AcDbEntity
  8
0
370
    20
100
AcDbPolyline
 90
        3
 70
     0
 43
0.0
 10
84.7
 20
61.17499999999999
 10
78.02500000000001
 20
62.77499999999999
 10
82.15000000000001
 20
62.77499999999999
  0
LINE
  5
B8E
330
11D
100
AcDbEntity
  8
0
370
    20
100
AcDbLine
 10
7.275
 20
128.125
 30
0.0
 11
5.375
 21
127.175
 31
0.0
  0
LINE
  5
B91
330
11D
100
AcDbEntity
  8
0
370
    20
100
AcDbLine
 10
8.875
 20
126.85
 30
0.0
 11
6.974999999999999
 21
125.9
 31
0.0
  0
LINE
  5
B94
330
11D
100
AcDbEntity
  8
0
370
    20
100
AcDbLine
 10
10.45
 20
125.9
 30
0.0
 11
8.55
 21
124.95
 31
0.0
  0
LINE
  5
B97
330
11D
100
AcDbEntity
  8
0
370
    20
100
AcDbLine
 10
12.35
 20
124.95
 30
0.0
 11
10.45
 21
124.0
 31
0.0
  0
LINE
  5
B9A
330
11D
100
AcDbEntity
  8
0
370
    20
100
AcDbLine
 10
14.275
 20
124.0
 30
0.0
 11
12.35
 21
123.05
 31
0.0
  0
LINE
  5
B9D
330
11D
100
AcDbEntity
  8
0
370
    20
100
AcDbLine
 10
16.175
 20
122.4
 30
0.0
 11
14.275
 21
121.45
 31
0.0
  0
LINE
  5
BA0
330
11D
100
AcDbEntity
  8
0
370
    20
100
AcDbLine
 10
18.4
 20
121.45
 30
0.0
 11
16.475
 21
120.5
 31
0.0
  0
LINE
  5
BA3
330
11D
100
AcDbEntity
  8
0
370
    20
100
AcDbLine
 10
20.6
 20
120.825
 30
0.0
 11
18.7
 21
119.875
 31
0.0
  0
LINE
  5
BA6
330
11D
100
AcDbEntity
  8
0
370
    20
100
AcDbLine
 10
22.5
 20
119.55
 30
0.0
 11
20.6
 21
118.6
 31
0.0
  0
LINE
  5
BA9
330
11D
100
AcDbEntity
  8
0
370
    20
100
AcDbLine
 10
24.1
 20
118.275
 30
0.0
 11
22.2
 21
117.325
 31
0.0
  0
LINE
  5
BAC
330
11D
100
AcDbEntity
  8
0
370
    20
100
AcDbLine
 10
25.675
 20
117.325
 30
0.0
 11
23.775
 21
116.375
 31
0.0
  0
LINE
  5
BAF
330
11D
100
AcDbEntity
  8
0
370
    20
100
AcDbLine
 10
27.6
 20
116.7
 30
0.0
 11
25.675
 21
115.75
 31
0.0
  0
LINE
  5
BB2
330
11D
100
AcDbEntity
  8
0
370
    20
100
AcDbLine
 10
29.5
 20
116.075
 30
0.0
 11
27.6
 21
115.1
 31
0.0
  0
LINE
  5
BB5
330
11D
100
AcDbEntity
  8
0
370
    20
100
AcDbLine
 10
30.75
 20
115.1
 30
0.0
 11
28.85
 21
114.15
 31
0.0
  0
LINE
  5
BB8
330
11D
100
AcDbEntity
  8
0
370
    20
100
AcDbLine
 10
36.475
 20
111.0
 30
0.0
 11
34.575
 21
110.025
 31
0.0
  0
LINE
  5
BBB
330
11D
100
AcDbEntity
  8
0
370
    20
100
AcDbLine
 10
39.0
 20
110.35
 30
0.0
 11
37.1
 21
109.4
 31
0.0
  0
LINE
  5
BBE
330
11D
100
AcDbEntity
  8
0
370
    20
100
AcDbLine
 10
41.225
 20
109.725
 30
0.0
 11
39.325
 21
108.775
 31
0.0
  0
LINE
  5
BC1
330
11D
100
AcDbEntity
  8
0
370
    20
100
AcDbLine
 10
43.125
 20
108.45
 30
0.0
 11
41.225
 21
107.5
 31
0.0
  0
LINE
  5
BC4
330
11D
100
AcDbEntity
  8
0
370
    20
100
AcDbLine
 10
47.25
 20
105.275
 30
0.0
 11
45.35
 21
104.325
 31
0.0
  0
LINE
  5
BC7
330
11D
100
AcDbEntity
  8
0
370
    20
100
AcDbLine
 10
49.15
 20
104.325
 30
0.0
 11
47.25
 21
103.375
 31
0.0
  0
LINE
  5
BCA
330
11D
100
AcDbEntity
  8
0
370
    20
100
AcDbLine
 10
51.075
 20
103.05
 30
0.0
 11
49.15
 21
102.1
 31
0.0
  0
LINE
  5
BCD
330
11D
100
AcDbEntity
  8
0
370
    20
100
AcDbLine
 10
53.275
 20
102.1
 30
0.0
 11
51.375
 21
101.15
 31
0.0
  0
LINE
  5
BD0
330
11D
100
AcDbEntity
  8
0
370
    20
100
AcDbLine
 10
55.5
 20
101.15
 30
0.0
 11
53.6
 21
100.2
 31
0.0
  0
LINE
  5
BD3
330
11D
100
AcDbEntity
  8
0
370
    20
100
AcDbLine
 10
57.4
 20
100.2
 30
0.0
 11
55.5
 21
99.25
 31
0.0
  0
LINE
  5
BD6
330
11D
100
AcDbEntity
  8
0
370
    20
100
AcDbLine
 10
59.95
 20
99.25
 30
0.0
 11
58.04999999999999
 21
98.3
 31
0.0
  0
LINE
  5
BD9
330
11D
100
AcDbEntity
  8
0
370
    20
100
AcDbLine
 10
61.85
 20
98.3
 30
0.0
 11
59.95
 21
97.34999999999999
 31
0.0
  0
LINE
  5
BDC
330
11D
100
AcDbEntity
  8
0
370
    20
100
AcDbLine
 10
63.75
 20
97.025
 30
0.0
 11
61.85
 21
96.07500000000001
 31
0.0
  0
LINE
  5
BDF
330
11D
100
AcDbEntity
  8
0
370
    20
100
AcDbLine
 10
66.92499999999999
 20
94.8
 30
0.0
 11
65.02500000000001
 21
93.84999999999999
 31
0.0
  0
LINE
  5
BE2
330
11D
100
AcDbEntity
  8
0
370
    20
100
AcDbLine
 10
69.15
 20
93.84999999999999
 30
0.0
 11
67.25
 21
92.9
 31
0.0
  0
LINE
  5
BE5
330
11D
100
AcDbEntity
  8
0
370
    20
100
AcDbLine
 10
71.375
 20
92.59999999999999
 30
0.0
 11
69.47499999999999
 21
91.62499999999999
 31
0.0
  0
LINE
  5
BE8
330
11D
100
AcDbEntity
  8
0
370
    20
100
AcDbLine
 10
82.475
 20
86.875
 30
0.0
 11
80.575
 21
85.92499999999999
 31
0.0
  0
LINE
  5
BEB
330
11D
100
AcDbEntity
  8
0
370
    20
100
AcDbLine
 10
84.04999999999999
 20
85.29999999999999
 30
0.0
 11
82.15000000000001
 21
84.35
 31
0.0
  0
LINE
  5
BEE
330
11D
100
AcDbEntity
  8
0
370
    20
100
AcDbLine
 10
85.65000000000001
 20
84.02500000000001
 30
0.0
 11
83.75
 21
83.075
 31
0.0
  0
LINE
  5
BF1
330
11D
100
AcDbEntity
  8
0
370
    20
100
AcDbLine
 10
86.925
 20
82.75
 30
0.0
 11
85.0
 21
81.79999999999999
 31
0.0
  0
LINE
  5
BF4
330
11D
100
AcDbEntity
  8
0
370
    20
100
AcDbLine
 10
88.825
 20
82.42499999999999
 30
0.0
 11
86.925
 21
81.47499999999999
 31
0.0
  0
LINE
  5
BF7
330
11D
100
AcDbEntity
  8
0
370
    20
100
AcDbLine
 10
91.05
 20
81.47499999999999
 30
0.0
 11
89.12499999999999
 21
80.525
 31
0.0
  0
LINE
  5
BFA
330
11D
100
AcDbEntity
  8
0
370
    20
100
AcDbLine
 10
93.25000000000001
 20
80.84999999999999
 30
0.0
 11
91.34999999999999
 21
79.90000000000001
 31
0.0
  0
LINE
  5
BFD
330
11D
100
AcDbEntity
  8
0
370
    20
100
AcDbLine
 10
94.84999999999999
 20
79.575
 30
0.0
 11
92.94999999999999
 21
78.625
 31
0.0
  0
LINE
  5
C00
330
11D
100
AcDbEntity
  8
0
370
    20
100
AcDbLine
 10
96.425
 20
78.625
 30
0.0
 11
94.525
 21
77.675
 31
0.0
  0
LINE
  5
C03
330
11D
100
AcDbEntity
  8
0
370
    20
100
AcDbLine
 10
98.02500000000001
 20
77.675
 30
0.0
 11
96.125
 21
76.72499999999999
 31
0.0
  0
LINE
  5
C06
330
11D
100
AcDbEntity
  8
0
370
    20
100
AcDbLine
 10
99.92499999999999
 20
76.72499999999999
 30
0.0
 11
98.02500000000001
 21
75.775
 31
0.0
  0
LINE
  5
C09
330
11D
100
AcDbEntity
  8
0
370
    20
100
AcDbLine
 10
101.825
 20
76.09999999999999
 30
0.0
 11
99.92499999999999
 21
75.15
 31
0.0
  0
LINE
  5
C0C
330
11D
100
AcDbEntity
  8
0
370
    20
100
AcDbLine
 10
103.725
 20
75.45
 30
0.0
 11
101.825
 21
74.5
 31
0.0
  0
LINE
  5
C0F
330
11D
100
AcDbEntity
  8
0
370
    20
100
AcDbLine
 10
105.625
 20
74.825
 30
0.0
 11
103.725
 21
73.875
 31
0.0
  0
LINE
  5
C12
330
11D
100
AcDbEntity
  8
0
370
    20
100
AcDbLine
 10
107.525
 20
73.875
 30
0.0
 11
105.625
 21
72.925
 31
0.0
  0
LINE
  5
C15
330
11D
100
AcDbEntity
  8
0
370
    20
100
AcDbLine
 10
109.125
 20
72.925
 30
0.0
 11
107.225
 21
71.97499999999999
 31
0.0
  0
LINE
  5
C18
330
11D
100
AcDbEntity
  8
0
370
    20
100
AcDbLine
 10
111.025
 20
72.275
 30
0.0
 11
109.125
 21
71.325
 31
0.0
  0
LINE
  5
C1B
330
11D
100
AcDbEntity
  8
0
370
    20
100
AcDbLine
 10
112.6
 20
71.325
 30
0.0
 11
110.7
 21
70.375
 31
0.0
  0
LINE
  5
C1E
330
11D
100
AcDbEntity
  8
0
370
    20
100
AcDbLine
 10
114.525
 20
70.375
 30
0.0
 11
112.6
 21
69.42499999999999
 31
0.0
  0
LINE
  5
C21
330
11D
100
AcDbEntity
  8
0
370
    20
100
AcDbLine
 10
115.775
 20
69.42499999999999
 30
0.0
 11
113.875
 21
68.475
 31
0.0
  0
LINE
  5
C24
330
11D
100
AcDbEntity
  8
0
370
    20
100
AcDbLine
 10
117.375
 20
68.475
 30
0.0
 11
115.475
 21
67.52500000000001
 31
0.0
  0
LINE
  5
C27
330
11D
100
AcDbEntity
  8
0
370
    20
100
AcDbLine
 10
119.275
 20
67.52500000000001
 30
0.0
 11
117.375
 21
66.575
 31
0.0
  0
LINE
  5
C2A
330
11D
100
AcDbEntity
  8
0
370
    20
100
AcDbLine
 10
120.85
 20
66.575
 30
0.0
 11
118.95
 21
65.625
 31
0.0
  0
LINE
  5
C2D
330
11D
100
AcDbEntity
  8
0
370
    20
100
AcDbLine
 10
122.775
 20
65.3
 30
0.0
 11
120.85
 21
64.34999999999999
 31
0.0
  0
LINE
  5
C30
330
11D
100
AcDbEntity
  8
0
370
    20
100
AcDbLine
 10
124.35
 20
64.025
 30
0.0
 11
122.45
 21
63.075
 31
0.0
  0
LINE
  5
C33
330
11D
100
AcDbEntity
  8
0
370
    20
100
AcDbLine
 10
126.25
 20
63.075
 30
0.0
 11
124.35
 21
62.125
 31
0.0
  0
LINE
  5
C36
330
11D
100
AcDbEntity
  8
0
370
    20
100
AcDbLine
 10
128.15
 20
62.125
 30
0.0
 11
126.25
 21
61.17499999999999
 31
0.0
  0
LINE
  5
C39
330
11D
100
AcDbEntity
  8
0
370
    20
100
AcDbLine
 10
130.375
 20
60.875
 30
0.0
 11
128.475
 21
59.9
 31
0.0
  0
LINE
  5
C3C
330
11D
100
AcDbEntity
  8
0
370
    20
100
AcDbLine
 10
131.975
 20
59.9
 30
0.0
 11
130.05
 21
58.95
 31
0.0
  0
LINE
  5
C3F
330
11D
100
AcDbEntity
  8
0
370
    20
100
AcDbLine
 10
133.55
 20
59.275
 30
0.0
 11
131.65
 21
58.325
 31
0.0
  0
LINE
  5
C42
330
11D
100
AcDbEntity
  8
0
370
    20
100
AcDbLine
 10
135.775
 20
58.0
 30
0.0
 11
133.875
 21
57.05
 31
0.0
  0
LINE
  5
C45
330
11D
100
AcDbEntity
  8
0
370
    20
100
AcDbLine
 10
138.0
 20
57.05
 30
0.0
 11
136.1
 21
56.1
 31
0.0
  0
LINE
  5
C48
330
11D
100
AcDbEntity
  8
0
370
    20
100
AcDbLine
 10
139.575
 20
55.775
 30
0.0
 11
137.675
 21
54.825
 31
0.0
  0
LINE
  5
C4B
330
11D
100
AcDbEntity
  8
0
370
    20
100
AcDbLine
 10
141.175
 20
54.825
 30
0.0
 11
139.25
 21
53.875
 31
0.0
  0
LINE
  5
C4E
330
11D
100
AcDbEntity
  8
0
370
    20
100
AcDbLine
 10
142.425
 20
53.575
 30
0.0
 11
140.525
 21
52.625
 31
0.0
  0
LINE
  5
C51
330
11D
100
AcDbEntity
  8
0
370
    20
100
AcDbLine
 10
144.65
 20
52.625
 30
0.0
 11
142.75
 21
51.65
 31
0.0
  0
LINE
  5
C54
330
11D
100
AcDbEntity
  8
0
370
    20
100
AcDbLine
 10
146.55
 20
51.65
 30
0.0
 11
144.65
 21
50.7
 31
0.0
  0
LINE
  5
C57
330
11D
100
AcDbEntity
  8
0
370
    20
100
AcDbLine
 10
148.15
 20
50.7
 30
0.0
 11
146.25
 21
49.75
 31
0.0
  0
LINE
  5
C5A
330
11D
100
AcDbEntity
  8
0
370
    20
100
AcDbLine
 10
150.05
 20
49.75
 30
0.0
 11
148.15
 21
48.79999999999999
 31
0.0
  0
LINE
  5
C5D
330
11D
100
AcDbEntity
  8
0
370
    20
100
AcDbLine
 10
151.95
 20
49.125
 30
0.0
 11
150.05
 21
48.17499999999999
 31
0.0
  0
LINE
  5
C60
330
11D
100
AcDbEntity
  8
0
370
    20
100
AcDbLine
 10
153.85
 20
48.5
 30
0.0
 11
151.95
 21
47.54999999999999
 31
0.0
  0
LINE
  5
C63
330
11D
100
AcDbEntity
  8
0
370
    20
100
AcDbLine
 10
155.45
 20
47.54999999999999
 30
0.0
 11
153.525
 21
46.575
 31
0.0
  0
LINE
  5
C66
330
11D
100
AcDbEntity
  8
0
370
    20
100
AcDbLine
 10
157.35
 20
46.9
 30
0.0
 11
155.45
 21
45.95
 31
0.0
  0
LINE
  5
C69
330
11D
100
AcDbEntity
  8
0
370
    30
100
AcDbLine
 10
72.95
 20
97.97499999999999
 30
0.0
 11
72.95
 21
95.75000000000001
 31
0.0
  0
LINE
  5
C6C
330
11D
100
AcDbEntity
  8
0
370
    30
100
AcDbLine
 10
73.125
 20
47.92499999999999
 30
0.0
 11
72.95
 21
93.84999999999999
 31
0.0
  0
LINE
  5
C6F
330
11D
100
AcDbEntity
  8
0
370
    30
100
AcDbLine
 10
78.02500000000001
 20
93.84999999999999
 30
0.0
 11
78.02500000000001
 21
92.9
 31
0.0
  0
LINE
  5
C72
330
11D
100
AcDbEntity
  8
0
370
    30
100
AcDbLine
 10
78.125
 20
48.25
 30
0.0
 11
78.02500000000001
 21
91.0
 31
0.0
  0
LINE
  5
C75
330
11D
100
AcDbEntity
  8
0
370
    30
100
AcDbLine
 10
78.67499999999999
 20
93.22499999999999
 30
0.0
 11
78.67499999999999
 21
92.59999999999999
 31
0.0
  0
LINE
  5
C78
330
11D
100
AcDbEntity
  8
0
370
    30
100
AcDbLine
 10
78.67499999999999
 20
90.675
 30
0.0
 11
78.67499999999999
 21
71.325
 31
0.0
  0
LINE
  5
C7B
330
11D
100
AcDbEntity
  8
0
370
    20
100
AcDbLine
 10
74.84999999999999
 20
107.175
 30
0.0
 11
74.84999999999999
 21
94.50000000000001
 31
0.0
  0
LINE
  5
C7E
330
11D
100
AcDbEntity
  8
0
370
    20
100
AcDbLine
 10
74.84999999999999
 20
92.9
 30
0.0
 11
74.84999999999999
 21
77.34999999999999
 31
0.0
  0
LINE
  5
C81
330
11D
100
AcDbEntity
  8
0
370
    20
100
AcDbLine
 10
76.45
 20
106.875
 30
0.0
 11
76.45
 21
93.84999999999999
 31
0.0
  0
LINE
  5
C84
330
11D
100
AcDbEntity
  8
0
370
    20
100
AcDbLine
 10
76.45
 20
91.95
 30
0.0
 11
76.45
 21
77.34999999999999
 31
0.0
  0
LINE
  5
C87
330
11D
100
AcDbEntity
  8
0
370
    20
100
AcDbLine
 10
109.125
 20
65.95
 30
0.0
 11
111.975
 21
64.34999999999999
 31
0.0
  0
LINE
  5
C8A
330
11D
100
AcDbEntity
  8
0
370
    20
100
AcDbLine
 10
85.95
 20
78.625
 30
0.0
 11
88.825
 21
77.05
 31
0.0
  0
LINE
  5
C8D
330
11D
100
AcDbEntity
  8
0
370
    20
100
AcDbLine
 10
93.57499999999999
 20
73.875
 30
0.0
 11
96.425
 21
72.275
 31
0.0
  0
LINE
  5
C90
330
11D
100
AcDbEntity
  8
0
370
    20
100
AcDbLine
 10
83.75
 20
74.825
 30
0.0
 11
86.6
 21
73.22499999999999
 31
0.0
  0
LINE
  5
C93
330
11D
100
AcDbEntity
  8
0
370
    20
100
AcDbLine
 10
87.87499999999999
 20
70.7
 30
0.0
 11
90.72499999999999
 21
69.1
 31
0.0
  0
LINE
  5
C96
330
11D
100
AcDbEntity
  8
0
370
    20
100
AcDbLine
 10
80.25
 20
67.85
 30
0.0
 11
83.1
 21
66.25
 31
0.0
  0
LINE
  5
C99
330
11D
100
AcDbEntity
  8
0
370
    20
100
AcDbLine
 10
86.925
 20
66.90000000000001
 30
0.0
 11
89.775
 21
65.3
 31
0.0
  0
LINE
  5
C9C
330
11D
100
AcDbEntity
  8
0
370
    20
100
AcDbLine
 10
93.25000000000001
 20
70.7
 30
0.0
 11
96.125
 21
69.1
 31
0.0
  0
LINE
  5
C9F
330
11D
100
AcDbEntity
  8
0
370
    20
100
AcDbLine
 10
101.5
 20
72.275
 30
0.0
 11
104.375
 21
70.7
 31
0.0
  0
LINE
  5
CA2
330
11D
100
AcDbEntity
  8
0
370
    20
100
AcDbLine
 10
104.05
 20
64.97499999999999
 30
0.0
 11
106.9
 21
63.39999999999999
 31
0.0
  0
LINE
  5
CA5
330
11D
100
AcDbEntity
  8
0
370
    20
100
AcDbLine
 10
95.47499999999999
 20
64.675
 30
0.0
 11
98.32500000000001
 21
63.075
 31
0.0
  0
LINE
  5
CA8
330
11D
100
AcDbEntity
  8
0
370
    20
100
AcDbLine
 10
105.325
 20
59.6
 30
0.0
 11
108.175
 21
58.0
 31
0.0
  0
LINE
  5
CAB
330
11D
100
AcDbEntity
  8
0
370
    20
100
AcDbLine
 10
97.375
 20
58.0
 30
0.0
 11
100.25
 21
56.425
 31
0.0
  0
LINE
  5
CAE
330
11D
100
AcDbEntity
  8
0
370
    20
100
AcDbLine
 10
106.9
 20
55.475
 30
0.0
 11
109.75
 21
53.875
 31
0.0
  0
LINE
  5
CB1
330
11D
100
AcDbEntity
  8
0
370
    20
100
AcDbLine
 10
113.25
 20
48.79999999999999
 30
0.0
 11
116.1
 21
47.225
 31
0.0
  0
LINE
  5
CB4
330
11D
100
AcDbEntity
  8
0
370
    20
100
AcDbLine
 10
117.375
 20
44.375
 30
0.0
 11
120.225
 21
42.77499999999999
 31
0.0
  0
LINE
  5
CB7
330
11D
100
AcDbEntity
  8
0
370
    20
100
AcDbLine
 10
119.9
 20
47.54999999999999
 30
0.0
 11
122.775
 21
45.95
 31
0.0
  0
LINE
  5
CBA
330
11D
100
AcDbEntity
  8
0
370
    20
100
AcDbLine
 10
111.975
 20
55.15
 30
0.0
 11
114.825
 21
53.575
 31
0.0
  0
LINE
  5
CBD
330
11D
100
AcDbEntity
  8
0
370
    20
100
AcDbLine
 10
115.475
 20
57.375
 30
0.0
 11
118.325
 21
55.775
 31
0.0
  0
LINE
  5
CC0
330
11D
100
AcDbEntity
  8
0
370
    20
100
AcDbLine
 10
115.15
 20
63.075
 30
0.0
 11
118.0
 21
61.5
 31
0.0
  0
LINE
  5
CC3
330
11D
100
AcDbEntity
  8
0
370
    20
100
AcDbLine
 10
124.025
 20
58.65
 30
0.0
 11
126.9
 21
57.05
 31
0.0
  0
LINE
  5
CC6
330
11D
100
AcDbEntity
  8
0
370
    20
100
AcDbLine
 10
120.225
 20
55.15
 30
0.0
 11
123.075
 21
53.575
 31
0.0
  0
LINE
  5
CC9
330
11D
100
AcDbEntity
  8
0
370
    20
100
AcDbLine
 10
122.775
 20
50.4
 30
0.0
 11
125.625
 21
48.79999999999999
 31
0.0
  0
LINE
  5
CCC
330
11D
100
AcDbEntity
  8
0
370
    20
100
AcDbLine
 10
127.2
 20
42.77499999999999
 30
0.0
 11
130.05
 21
41.2
 31
0.0
  0
LINE
  5
CCF
330
11D
100
AcDbEntity
  8
0
370
    20
100
AcDbLine
 10
130.375
 20
45.95
 30
0.0
 11
133.225
 21
44.375
 31
0.0
  0
LINE
  5
CD2
330
11D
100
AcDbEntity
  8
0
370
    20
100
AcDbLine
 10
130.7
 20
51.65
 30
0.0
 11
133.55
 21
50.075
 31
0.0
  0
LINE
  5
CD5
330
11D
100
AcDbEntity
  8
0
370
    20
100
AcDbLine
 10
133.875
 20
54.525
 30
0.0
 11
136.725
 21
52.925
 31
0.0
  0
LINE
  5
CD8
330
11D
100
AcDbEntity
  8
0
370
    20
100
AcDbLine
 10
138.95
 20
49.75
 30
0.0
 11
141.8
 21
48.17499999999999
 31
0.0
  0
LINE
  5
CDB
330
11D
100
AcDbEntity
  8
0
370
    20
100
AcDbLine
 10
137.35
 20
46.575
 30
0.0
 11
140.2
 21
45.0
 31
0.0
  0
LINE
  5
CDE
330
11D
100
AcDbEntity
  8
0
370
    20
100
AcDbLine
 10
138.625
 20
41.2
 30
0.0
 11
141.475
 21
39.6
 31
0.0
  0
LINE
  5
CE1
330
11D
100
AcDbEntity
  8
0
370
    20
100
AcDbLine
 10
145.3
 20
39.925
 30
0.0
 11
148.15
 21
38.35
 31
0.0
  0
LINE
  5
CE4
330
11D
100
AcDbEntity
  8
0
370
    20
100
AcDbLine
 10
143.375
 20
48.17499999999999
 30
0.0
 11
146.25
 21
46.575
 31
0.0
  0
LINE
  5
CE7
330
11D
100
AcDbEntity
  8
0
370
    20
100
AcDbLine
 10
148.15
 20
43.425
 30
0.0
 11
151.0
 21
41.825
 31
0.0
  0
LINE
  5
CEA
330
11D
100
AcDbEntity
  8
0
370
    20
100
AcDbLine
 10
154.5
 20
40.875
 30
0.0
 11
157.35
 21
39.3
 31
0.0
  0
LINE
  5
CED
330
11D
100
AcDbEntity
  8
0
370
    20
100
AcDbLine
 10
66.6
 20
72.59999999999999
 30
0.0
 11
69.47499999999999
 21
71.025
 31
0.0
  0
LINE
  5
CF0
330
11D
100
AcDbEntity
  8
0
370
    20
100
AcDbLine
 10
61.52499999999999
 20
78.625
 30
0.0
 11
64.40000000000001
 21
77.05
 31
0.0
  0
LINE
  5
CF3
330
11D
100
AcDbEntity
  8
0
370
    20
100
AcDbLine
 10
67.875
 20
79.90000000000001
 30
0.0
 11
70.72499999999999
 21
78.3
 31
0.0
  0
LINE
  5
CF6
330
11D
100
AcDbEntity
  8
0
370
    20
100
AcDbLine
 10
67.875
 20
87.5
 30
0.0
 11
70.72499999999999
 21
85.92499999999999
 31
0.0
  0
LINE
  5
CF9
330
11D
100
AcDbEntity
  8
0
370
    20
100
AcDbLine
 10
63.45
 20
91.62499999999999
 30
0.0
 11
66.29999999999999
 21
90.05
 31
0.0
  0
LINE
  5
CFC
330
11D
100
AcDbEntity
  8
0
370
    20
100
AcDbLine
 10
58.04999999999999
 20
88.475
 30
0.0
 11
60.89999999999999
 21
86.875
 31
0.0
  0
LINE
  5
CFF
330
11D
100
AcDbEntity
  8
0
370
    20
100
AcDbLine
 10
52.975
 20
88.475
 30
0.0
 11
55.825
 21
86.875
 31
0.0
  0
LINE
  5
D02
330
11D
100
AcDbEntity
  8
0
370
    20
100
AcDbLine
 10
45.35
 20
88.15000000000001
 30
0.0
 11
48.2
 21
86.54999999999999
 31
0.0
  0
LINE
  5
D05
330
11D
100
AcDbEntity
  8
0
370
    20
100
AcDbLine
 10
40.27499999999999
 20
94.175
 30
0.0
 11
43.125
 21
92.59999999999999
 31
0.0
  0
LINE
  5
D08
330
11D
100
AcDbEntity
  8
0
370
    20
100
AcDbLine
 10
48.85
 20
96.70000000000001
 30
0.0
 11
51.7
 21
95.12500000000001
 31
0.0
  0
LINE
  5
D0B
330
11D
100
AcDbEntity
  8
0
370
    20
100
AcDbLine
 10
44.4
 20
101.475
 30
0.0
 11
47.25
 21
99.875
 31
0.0
  0
LINE
  5
D0E
330
11D
100
AcDbEntity
  8
0
370
    20
100
AcDbLine
 10
39.95
 20
99.875
 30
0.0
 11
42.825
 21
98.3
 31
0.0
  0
LINE
  5
D11
330
11D
100
AcDbEntity
  8
0
370
    20
100
AcDbLine
 10
34.575
 20
98.3
 30
0.0
 11
37.425
 21
96.70000000000001
 31
0.0
  0
LINE
  5
D14
330
11D
100
AcDbEntity
  8
0
370
    20
100
AcDbLine
 10
31.4
 20
95.44999999999999
 30
0.0
 11
34.25
 21
93.84999999999999
 31
0.0
  0
LINE
  5
D17
330
11D
100
AcDbEntity
  8
0
370
    20
100
AcDbLine
 10
24.1
 20
101.8
 30
0.0
 11
26.95
 21
100.2
 31
0.0
  0
LINE
  5
D1A
330
11D
100
AcDbEntity
  8
0
370
    20
100
AcDbLine
 10
29.175
 20
103.05
 30
0.0
 11
32.025
 21
101.475
 31
0.0
  0
LINE
  5
D1D
330
11D
100
AcDbEntity
  8
0
370
    20
100
AcDbLine
 10
37.425
 20
104.95
 30
0.0
 11
40.27499999999999
 21
103.375
 31
0.0
  0
LINE
  5
D20
330
11D
100
AcDbEntity
  8
0
370
    20
100
AcDbLine
 10
10.15
 20
120.2
 30
0.0
 11
13.0
 21
118.6
 31
0.0
  0
LINE
  5
D23
330
11D
100
AcDbEntity
  8
0
370
    20
100
AcDbLine
 10
7.275
 20
117.025
 30
0.0
 11
10.15
 21
115.425
 31
0.0
  0
LINE
  5
D26
330
11D
100
AcDbEntity
  8
0
370
    20
100
AcDbLine
 10
14.575
 20
116.075
 30
0.0
 11
17.425
 21
114.475
 31
0.0
  0
LINE
  5
D29
330
11D
100
AcDbEntity
  8
0
370
    20
100
AcDbLine
 10
26.625
 20
111.95
 30
0.0
 11
29.5
 21
110.35
 31
0.0
  0
LINE
  5
D2C
330
11D
100
AcDbEntity
  8
0
370
    20
100
AcDbLine
 10
14.9
 20
105.275
 30
0.0
 11
17.75
 21
103.7
 31
0.0
  0
LINE
  5
D2F
330
11D
100
AcDbEntity
  8
0
370
    20
100
AcDbLine
 10
35.825
 20
89.725
 30
0.0
 11
38.7
 21
88.15000000000001
 31
0.0
  0
LINE
  5
D32
330
11D
100
AcDbEntity
  8
0
370
    30
100
AcDbLine
 10
40.925
 20
160.15
 30
0.0
 11
42.825
 21
159.525
 31
0.0
  0
LINE
  5
D35
330
11D
100
AcDbEntity
  8
0
370
    30
100
AcDbLine
 10
40.27499999999999
 20
158.25
 30
0.0
 11
42.175
 21
157.625
 31
0.0
  0
LINE
  5
D38
330
11D
100
AcDbEntity
  8
0
370
    30
100
AcDbLine
 10
42.825
 20
159.525
 30
0.0
 11
42.175
 21
157.625
 31
0.0
  0
ELLIPSE
  5
D3B
330
11D
100
AcDbEntity
  8
0
  6
DOT
 62
     7
370
    20
100
AcDbEllipse
 10
88.175
 20
91.325
 30
0.0
 11
0.0
 21
3.799999999999999
 31
0.0
210
0.0
220
0.0
230
0.9999999999999998
 40
0.75
 41
5.390407999999999
 42
6.283185307179586
  0
ELLIPSE
  5
D3E
330
11D
100
AcDbEntity
  8
0
  6
DOT
 62
     7
370
    20
100
AcDbEllipse
 10
88.175
 20
91.62499999999999
 30
0.0
 11
0.0
 21
3.149999999999999
 31
0.0
210
0.0
220
0.0
230
0.9999999999999998
 40
0.6984130000000001
 41
5.273826
 42
6.283185307179586
  0
ELLIPSE
  5
D41
330
11D
100
AcDbEntity
  8
0
  6
DOT
 62
     7
370
    20
100
AcDbEllipse
 10
87.87499999999999
 20
91.95
 30
0.0
 11
0.0
 21
2.524999999999999
 31
0.0
210
0.0
220
0.0
230
1.0
 40
0.6237620000000001
 41
5.224738999999999
 42
6.283185307179586
  0
LINE
  5
D44
330
11D
100
AcDbEntity
  8
0
370
    20
100
AcDbLine
 10
135.45
 20
124.325
 30
0.0
 11
82.79999999999999
 21
86.25
 31
0.0
  0
LINE
  5
D47
330
11D
100
AcDbEntity
  8
0
370
    20
100
AcDbLine
 10
134.175
 20
125.575
 30
0.0
 11
81.52500000000001
 21
87.5
 31
0.0
  0
LINE
  5
D4A
330
11D
100
AcDbEntity
  8
0
  6
DOT
 62
     7
370
    20
100
AcDbLine
 10
91.05
 20
91.95
 30
0.0
 11
91.34999999999999
 21
91.325
 31
0.0
  0
LINE
  5
D4D
330
11D
100
AcDbEntity
  8
0
  6
DOT
 62
     7
370
    20
100
AcDbLine
 10
90.4
 20
91.95
 30
0.0
 11
90.4
 21
90.675
 31
0.0
  0
MTEXT
  5
D50
330
11D
100
AcDbEntity
  8
0
100
AcDbMText
 10
33.725
 20
123.825
 30
0.0
 40
1.5
 41
26.73
 46
0.0
 71
     1
 72
     5
  1
\f@ＭＳ 明朝|b0|i0|c128|p17;\T1.8772;オイルポンプ
  7
BIGFONT
 11
0.0
 21
-1.0
 31
0.0
 73
     1
 44
1.191591
  0
POINT
  5
D53
330
11D
100
AcDbEntity
  8
0
100
AcDbPoint
 10
52.975
 20
60.775
 30
0.0
  0
POINT
  5
D56
330
11D
100
AcDbEntity
  8
0
100
AcDbPoint
 10
55.5
 20
56.0
 30
0.0
  0
POINT
  5
D59
330
11D
100
AcDbEntity
  8
0
100
AcDbPoint
 10
59.95
 20
52.825
 30
0.0
  0
POINT
  5
D5C
330
11D
100
AcDbEntity
  8
0
100
AcDbPoint
 10
58.67499999999999
 20
56.65
 30
0.0
  0
POINT
  5
D5F
330
11D
100
AcDbEntity
  8
0
100
AcDbPoint
 10
65.975
 20
50.6
 30
0.0
  0
POINT
  5
D62
330
11D
100
AcDbEntity
  8
0
100
AcDbPoint
 10
70.09999999999999
 20
46.79999999999999
 30
0.0
  0
POINT
  5
D65
330
11D
100
AcDbEntity
  8
0
100
AcDbPoint
 10
59.0
 20
48.075
 30
0.0
  0
POINT
  5
D68
330
11D
100
AcDbEntity
  8
0
100
AcDbPoint
 10
63.125
 20
45.84999999999999
 30
0.0
  0
POINT
  5
D6B
330
11D
100
AcDbEntity
  8
0
100
AcDbPoint
 10
68.2
 20
42.37499999999999
 30
0.0
  0
POINT
  5
D6E
330
11D
100
AcDbEntity
  8
0
100
AcDbPoint
 10
60.575
 20
42.37499999999999
 30
0.0
  0
POINT
  5
D71
330
11D
100
AcDbEntity
  8
0
100
AcDbPoint
 10
64.40000000000001
 20
38.875
 30
0.0
  0
POINT
  5
D74
330
11D
100
AcDbEntity
  8
0
100
AcDbPoint
 10
70.09999999999999
 20
36.975
 30
0.0
  0
POINT
  5
D77
330
11D
100
AcDbEntity
  8
0
100
AcDbPoint
 10
65.825
 20
33.5
 30
0.0
  0
POINT
  5
D7A
330
11D
100
AcDbEntity
  8
0
100
AcDbPoint
 10
70.09999999999999
 20
30.3
 30
0.0
  0
POINT
  5
D7D
330
11D
100
AcDbEntity
  8
0
100
AcDbPoint
 10
68.2
 20
25.55
 30
0.0
  0
POINT
  5
D80
330
11D
100
AcDbEntity
  8
0
100
AcDbPoint
 10
71.05
 20
22.7
 30
0.0
  0
POINT
  5
D83
330
11D
100
AcDbEntity
  8
0
100
AcDbPoint
 10
75.95
 20
24.8
 30
0.0
  0
POINT
  5
D86
330
11D
100
AcDbEntity
  8
0
100
AcDbPoint
 10
72.7
 20
18.55
 30
0.0
  0
POINT
  5
D89
330
11D
100
AcDbEntity
  8
0
100
AcDbPoint
 10
84.075
 20
23.75
 30
0.0
  0
POINT
  5
D8C
330
11D
100
AcDbEntity
  8
0
100
AcDbPoint
 10
75.8
 20
28.9
 30
0.0
  0
POINT
  5
D8F
330
11D
100
AcDbEntity
  8
0
100
AcDbPoint
 10
75.8
 20
32.7
 30
0.0
  0
POINT
  5
D92
330
11D
100
AcDbEntity
  8
0
100
AcDbPoint
 10
80.575
 20
44.775
 30
0.0
  0
POINT
  5
D95
330
11D
100
AcDbEntity
  8
0
100
AcDbPoint
 10
80.25
 20
38.75
 30
0.0
  0
POINT
  5
D98
330
11D
100
AcDbEntity
  8
0
100
AcDbPoint
 10
87.87499999999999
 20
38.125
 30
0.0
  0
POINT
  5
D9B
330
11D
100
AcDbEntity
  8
0
100
AcDbPoint
 10
79.92499999999999
 20
22.8
 30
0.0
  0
POINT
  5
D9E
330
11D
100
AcDbEntity
  8
0
100
AcDbPoint
 10
80.02500000000001
 20
34.975
 30
0.0
  0
POINT
  5
DA1
330
11D
100
AcDbEntity
  8
0
100
AcDbPoint
 10
80.27500000000001
 20
30.6
 30
0.0
  0
POINT
  5
DA4
330
11D
100
AcDbEntity
  8
0
100
AcDbPoint
 10
84.325
 20
30.525
 30
0.0
  0
POINT
  5
DA7
330
11D
100
AcDbEntity
  8
0
100
AcDbPoint
 10
89.95
 20
32.325
 30
0.0
  0
POINT
  5
DAA
330
11D
100
AcDbEntity
  8
0
100
AcDbPoint
 10
76.825
 20
19.175
 30
0.0
  0
POINT
  5
DAD
330
11D
100
AcDbEntity
  8
0
100
AcDbPoint
 10
74.325
 20
22.0
 30
0.0
  0
POINT
  5
DB0
330
11D
100
AcDbEntity
  8
0
100
AcDbPoint
 10
82.15000000000001
 20
78.95
 30
0.0
  0
POINT
  5
DB3
330
11D
100
AcDbEntity
  8
0
100
AcDbPoint
 10
90.72499999999999
 20
74.175
 30
0.0
  0
POINT
  5
DB6
330
11D
100
AcDbEntity
  8
0
100
AcDbPoint
 10
82.79999999999999
 20
71.025
 30
0.0
  0
POINT
  5
DB9
330
11D
100
AcDbEntity
  8
0
100
AcDbPoint
 10
92.0
 20
66.575
 30
0.0
  0
POINT
  5
DBC
330
11D
100
AcDbEntity
  8
0
100
AcDbPoint
 10
85.0
 20
64.97499999999999
 30
0.0
  0
POINT
  5
DBF
330
11D
100
AcDbEntity
  8
0
100
AcDbPoint
 10
81.52500000000001
 20
56.1
 30
0.0
  0
POINT
  5
DC2
330
11D
100
AcDbEntity
  8
0
100
AcDbPoint
 10
90.72499999999999
 20
56.1
 30
0.0
  0
POINT
  5
DC5
330
11D
100
AcDbEntity
  8
0
100
AcDbPoint
 10
103.4
 20
57.375
 30
0.0
  0
POINT
  5
DC8
330
11D
100
AcDbEntity
  8
0
100
AcDbPoint
 10
98.65000000000001
 20
67.52500000000001
 30
0.0
  0
POINT
  5
DCB
330
11D
100
AcDbEntity
  8
0
100
AcDbPoint
 10
104.375
 20
68.475
 30
0.0
  0
POINT
  5
DCE
330
11D
100
AcDbEntity
  8
0
100
AcDbPoint
 10
111.975
 20
60.225
 30
0.0
  0
POINT
  5
DD1
330
11D
100
AcDbEntity
  8
0
100
AcDbPoint
 10
119.9
 20
59.6
 30
0.0
  0
POINT
  5
DD4
330
11D
100
AcDbEntity
  8
0
100
AcDbPoint
 10
125.925
 20
53.575
 30
0.0
  0
POINT
  5
DD7
330
11D
100
AcDbEntity
  8
0
100
AcDbPoint
 10
118.0
 20
51.025
 30
0.0
  0
POINT
  5
DDA
330
11D
100
AcDbEntity
  8
0
100
AcDbPoint
 10
85.65000000000001
 20
46.9
 30
0.0
  0
POINT
  5
DDD
330
11D
100
AcDbEntity
  8
0
100
AcDbPoint
 10
94.525
 20
44.05
 30
0.0
  0
POINT
  5
DE0
330
11D
100
AcDbEntity
  8
0
100
AcDbPoint
 10
108.175
 20
41.825
 30
0.0
  0
POINT
  5
DE3
330
11D
100
AcDbEntity
  8
0
100
AcDbPoint
 10
101.2
 20
47.225
 30
0.0
  0
POINT
  5
DE6
330
11D
100
AcDbEntity
  8
0
100
AcDbPoint
 10
113.575
 20
45.0
 30
0.0
  0
POINT
  5
DE9
330
11D
100
AcDbEntity
  8
0
100
AcDbPoint
 10
129.1
 20
48.5
 30
0.0
  0
POINT
  5
DEC
330
11D
100
AcDbEntity
  8
0
100
AcDbPoint
 10
122.775
 20
43.425
 30
0.0
  0
POINT
  5
DEF
330
11D
100
AcDbEntity
  8
0
100
AcDbPoint
 10
135.775
 20
43.725
 30
0.0
  0
POINT
  5
DF2
330
11D
100
AcDbEntity
  8
0
100
AcDbPoint
 10
136.1
 20
49.75
 30
0.0
  0
POINT
  5
DF5
330
11D
100
AcDbEntity
  8
0
100
AcDbPoint
 10
144.025
 20
43.425
 30
0.0
  0
POINT
  5
DF8
330
11D
100
AcDbEntity
  8
0
100
AcDbPoint
 10
152.275
 20
38.975
 30
0.0
  0
POINT
  5
DFB
330
11D
100
AcDbEntity
  8
0
100
AcDbPoint
 10
149.1
 20
45.625
 30
0.0
  0
POINT
  5
DFE
330
11D
100
AcDbEntity
  8
0
100
AcDbPoint
 10
80.875
 20
59.6
 30
0.0
  0
POINT
  5
E01
330
11D
100
AcDbEntity
  8
0
100
AcDbPoint
 10
85.95
 20
57.05
 30
0.0
  0
POINT
  5
E04
330
11D
100
AcDbEntity
  8
0
100
AcDbPoint
 10
108.175
 20
47.85
 30
0.0
  0
POINT
  5
E07
330
11D
100
AcDbEntity
  8
0
100
AcDbPoint
 10
114.525
 20
40.54999999999999
 30
0.0
  0
POINT
  5
E0A
330
11D
100
AcDbEntity
  8
0
100
AcDbPoint
 10
105.0
 20
36.75
 30
0.0
  0
POINT
  5
E0D
330
11D
100
AcDbEntity
  8
0
100
AcDbPoint
 10
104.05
 20
42.45
 30
0.0
  0
POINT
  5
E10
330
11D
100
AcDbEntity
  8
0
100
AcDbPoint
 10
99.27500000000001
 20
42.45
 30
0.0
  0
POINT
  5
E13
330
11D
100
AcDbEntity
  8
0
100
AcDbPoint
 10
91.34999999999999
 20
47.225
 30
0.0
  0
POINT
  5
E16
330
11D
100
AcDbEntity
  8
0
100
AcDbPoint
 10
94.525
 20
55.15
 30
0.0
  0
POINT
  5
E19
330
11D
100
AcDbEntity
  8
0
100
AcDbPoint
 10
79.92499999999999
 20
40.975
 30
0.0
  0
POINT
  5
E1C
330
11D
100
AcDbEntity
  8
0
100
AcDbPoint
 10
81.52500000000001
 20
42.54999999999999
 30
0.0
  0
POINT
  5
E1F
330
11D
100
AcDbEntity
  8
0
100
AcDbPoint
 10
82.15000000000001
 20
44.45
 30
0.0
  0
POINT
  5
E22
330
11D
100
AcDbEntity
  8
0
100
AcDbPoint
 10
84.04999999999999
 20
43.2
 30
0.0
  0
POINT
  5
E25
330
11D
100
AcDbEntity
  8
0
100
AcDbPoint
 10
86.27500000000001
 20
43.2
 30
0.0
  0
POINT
  5
E28
330
11D
100
AcDbEntity
  8
0
100
AcDbPoint
 10
96.425
 20
37.475
 30
0.0
  0
POINT
  5
E2B
330
11D
100
AcDbEntity
  8
0
100
AcDbPoint
 10
94.525
 20
36.85
 30
0.0
  0
POINT
  5
E2E
330
11D
100
AcDbEntity
  8
0
100
AcDbPoint
 10
92.62500000000001
 20
36.2
 30
0.0
  0
POINT
  5
E31
330
11D
100
AcDbEntity
  8
0
100
AcDbPoint
 10
90.72499999999999
 20
37.475
 30
0.0
  0
POINT
  5
E34
330
11D
100
AcDbEntity
  8
0
100
AcDbPoint
 10
82.15000000000001
 20
40.325
 30
0.0
  0
POINT
  5
E37
330
11D
100
AcDbEntity
  8
0
100
AcDbPoint
 10
84.04999999999999
 20
38.75
 30
0.0
  0
POINT
  5
E3A
330
11D
100
AcDbEntity
  8
0
100
AcDbPoint
 10
86.27500000000001
 20
36.85
 30
0.0
  0
POINT
  5
E3D
330
11D
100
AcDbEntity
  8
0
100
AcDbPoint
 10
89.45
 20
36.85
 30
0.0
  0
POINT
  5
E40
330
11D
100
AcDbEntity
  8
0
100
AcDbPoint
 10
97.07500000000001
 20
35.9
 30
0.0
  0
POINT
  5
E43
330
11D
100
AcDbEntity
  8
0
100
AcDbPoint
 10
52.65
 20
62.35
 30
0.0
  0
POINT
  5
E46
330
11D
100
AcDbEntity
  8
0
100
AcDbPoint
 10
54.225
 20
61.4
 30
0.0
  0
POINT
  5
E49
330
11D
100
AcDbEntity
  8
0
100
AcDbPoint
 10
55.825
 20
59.5
 30
0.0
  0
POINT
  5
E4C
330
11D
100
AcDbEntity
  8
0
100
AcDbPoint
 10
57.4
 20
59.5
 30
0.0
  0
POINT
  5
E4F
330
11D
100
AcDbEntity
  8
0
100
AcDbPoint
 10
59.625
 20
57.275
 30
0.0
  0
POINT
  5
E52
330
11D
100
AcDbEntity
  8
0
100
AcDbPoint
 10
61.225
 20
56.0
 30
0.0
  0
POINT
  5
E55
330
11D
100
AcDbEntity
  8
0
100
AcDbPoint
 10
63.45
 20
54.725
 30
0.0
  0
POINT
  5
E58
330
11D
100
AcDbEntity
  8
0
100
AcDbPoint
 10
63.75
 20
52.525
 30
0.0
  0
POINT
  5
E5B
330
11D
100
AcDbEntity
  8
0
100
AcDbPoint
 10
65.975
 20
52.825
 30
0.0
  0
POINT
  5
E5E
330
11D
100
AcDbEntity
  8
0
100
AcDbPoint
 10
68.825
 20
51.25
 30
0.0
  0
POINT
  5
E61
330
11D
100
AcDbEntity
  8
0
100
AcDbPoint
 10
71.375
 20
50.6
 30
0.0
  0
POINT
  5
E64
330
11D
100
AcDbEntity
  8
0
100
AcDbPoint
 10
71.675
 20
48.7
 30
0.0
  0
POINT
  5
E67
330
11D
100
AcDbEntity
  8
0
100
AcDbPoint
 10
71.675
 20
46.5
 30
0.0
  0
POINT
  5
E6A
330
11D
100
AcDbEntity
  8
0
100
AcDbPoint
 10
71.675
 20
44.275
 30
0.0
  0
POINT
  5
E6D
330
11D
100
AcDbEntity
  8
0
100
AcDbPoint
 10
71.675
 20
42.675
 30
0.0
  0
POINT
  5
E70
330
11D
100
AcDbEntity
  8
0
100
AcDbPoint
 10
70.09999999999999
 20
44.575
 30
0.0
  0
POINT
  5
E73
330
11D
100
AcDbEntity
  8
0
100
AcDbPoint
 10
68.2
 20
45.84999999999999
 30
0.0
  0
POINT
  5
E76
330
11D
100
AcDbEntity
  8
0
100
AcDbPoint
 10
66.29999999999999
 20
47.45
 30
0.0
  0
POINT
  5
E79
330
11D
100
AcDbEntity
  8
0
100
AcDbPoint
 10
67.54999999999999
 20
49.35
 30
0.0
  0
POINT
  5
E7C
330
11D
100
AcDbEntity
  8
0
100
AcDbPoint
 10
69.47499999999999
 20
49.35
 30
0.0
  0
POINT
  5
E7F
330
11D
100
AcDbEntity
  8
0
100
AcDbPoint
 10
65.02500000000001
 20
49.64999999999999
 30
0.0
  0
POINT
  5
E82
330
11D
100
AcDbEntity
  8
0
100
AcDbPoint
 10
62.475
 20
51.25
 30
0.0
  0
POINT
  5
E85
330
11D
100
AcDbEntity
  8
0
100
AcDbPoint
 10
61.52499999999999
 20
54.1
 30
0.0
  0
POINT
  5
E88
330
11D
100
AcDbEntity
  8
0
100
AcDbPoint
 10
58.35
 20
54.725
 30
0.0
  0
POINT
  5
E8B
330
11D
100
AcDbEntity
  8
0
100
AcDbPoint
 10
56.775
 20
54.725
 30
0.0
  0
POINT
  5
E8E
330
11D
100
AcDbEntity
  8
0
100
AcDbPoint
 10
53.925
 20
58.85
 30
0.0
  0
POINT
  5
E91
330
11D
100
AcDbEntity
  8
0
100
AcDbPoint
 10
55.825
 20
57.9
 30
0.0
  0
POINT
  5
E94
330
11D
100
AcDbEntity
  8
0
100
AcDbPoint
 10
57.4
 20
52.2
 30
0.0
  0
POINT
  5
E97
330
11D
100
AcDbEntity
  8
0
100
AcDbPoint
 10
60.27499999999999
 20
50.3
 30
0.0
  0
POINT
  5
E9A
330
11D
100
AcDbEntity
  8
0
100
AcDbPoint
 10
62.475
 20
49.35
 30
0.0
  0
POINT
  5
E9D
330
11D
100
AcDbEntity
  8
0
100
AcDbPoint
 10
64.40000000000001
 20
47.45
 30
0.0
  0
POINT
  5
EA0
330
11D
100
AcDbEntity
  8
0
100
AcDbPoint
 10
66.29999999999999
 20
44.9
 30
0.0
  0
POINT
  5
EA3
330
11D
100
AcDbEntity
  8
0
100
AcDbPoint
 10
68.2
 20
48.075
 30
0.0
  0
POINT
  5
EA6
330
11D
100
AcDbEntity
  8
0
100
AcDbPoint
 10
70.72499999999999
 20
50.925
 30
0.0
  0
POINT
  5
EA9
330
11D
100
AcDbEntity
  8
0
100
AcDbPoint
 10
64.7
 20
54.725
 30
0.0
  0
POINT
  5
EAC
330
11D
100
AcDbEntity
  8
0
100
AcDbPoint
 10
67.25
 20
53.15
 30
0.0
  0
POINT
  5
EAF
330
11D
100
AcDbEntity
  8
0
100
AcDbPoint
 10
65.02500000000001
 20
51.575
 30
0.0
  0
POINT
  5
EB2
330
11D
100
AcDbEntity
  8
0
100
AcDbPoint
 10
70.72499999999999
 20
49.02499999999999
 30
0.0
  0
POINT
  5
EB5
330
11D
100
AcDbEntity
  8
0
100
AcDbPoint
 10
68.525
 20
44.575
 30
0.0
  0
POINT
  5
EB8
330
11D
100
AcDbEntity
  8
0
100
AcDbPoint
 10
70.72499999999999
 20
43.325
 30
0.0
  0
POINT
  5
EBB
330
11D
100
AcDbEntity
  8
0
100
AcDbPoint
 10
65.65000000000001
 20
46.5
 30
0.0
  0
POINT
  5
EBE
330
11D
100
AcDbEntity
  8
0
100
AcDbPoint
 10
64.075
 20
49.35
 30
0.0
  0
POINT
  5
EC1
330
11D
100
AcDbEntity
  8
0
100
AcDbPoint
 10
61.225
 20
52.825
 30
0.0
  0
POINT
  5
EC4
330
11D
100
AcDbEntity
  8
0
100
AcDbPoint
 10
67.54999999999999
 20
51.25
 30
0.0
  0
POINT
  5
EC7
330
11D
100
AcDbEntity
  8
0
100
AcDbPoint
 10
38.375
 20
82.42499999999999
 30
0.0
  0
POINT
  5
ECA
330
11D
100
AcDbEntity
  8
0
100
AcDbPoint
 10
43.125
 20
78.3
 30
0.0
  0
POINT
  5
ECD
330
11D
100
AcDbEntity
  8
0
100
AcDbPoint
 10
48.2
 20
77.675
 30
0.0
  0
POINT
  5
ED0
330
11D
100
AcDbEntity
  8
0
100
AcDbPoint
 10
51.375
 20
73.55
 30
0.0
  0
POINT
  5
ED3
330
11D
100
AcDbEntity
  8
0
100
AcDbPoint
 10
56.775
 20
70.375
 30
0.0
  0
POINT
  5
ED6
330
11D
100
AcDbEntity
  8
0
100
AcDbPoint
 10
63.125
 20
65.625
 30
0.0
  0
POINT
  5
ED9
330
11D
100
AcDbEntity
  8
0
100
AcDbPoint
 10
67.25
 20
61.825
 30
0.0
  0
POINT
  5
EDC
330
11D
100
AcDbEntity
  8
0
100
AcDbPoint
 10
70.72499999999999
 20
60.225
 30
0.0
  0
POINT
  5
EDF
330
11D
100
AcDbEntity
  8
0
100
AcDbPoint
 10
55.2
 20
65.3
 30
0.0
  0
POINT
  5
EE2
330
11D
100
AcDbEntity
  8
0
100
AcDbPoint
 10
63.125
 20
58.65
 30
0.0
  0
POINT
  5
EE5
330
11D
100
AcDbEntity
  8
0
100
AcDbPoint
 10
6.974999999999999
 20
121.775
 30
0.0
  0
POINT
  5
EE8
330
11D
100
AcDbEntity
  8
0
100
AcDbPoint
 10
11.725
 20
114.15
 30
0.0
  0
POINT
  5
EEB
330
11D
100
AcDbEntity
  8
0
100
AcDbPoint
 10
19.975
 20
113.85
 30
0.0
  0
POINT
  5
EEE
330
11D
100
AcDbEntity
  8
0
100
AcDbPoint
 10
28.55
 20
106.225
 30
0.0
  0
POINT
  5
EF1
330
11D
100
AcDbEntity
  8
0
100
AcDbPoint
 10
21.55
 20
103.7
 30
0.0
  0
POINT
  5
EF4
330
11D
100
AcDbEntity
  8
0
100
AcDbPoint
 10
29.8
 20
97.97499999999999
 30
0.0
  0
POINT
  5
EF7
330
11D
100
AcDbEntity
  8
0
100
AcDbPoint
 10
38.7
 20
102.425
 30
0.0
  0
POINT
  5
EFA
330
11D
100
AcDbEntity
  8
0
100
AcDbPoint
 10
44.4
 20
96.4
 30
0.0
  0
POINT
  5
EFD
330
11D
100
AcDbEntity
  8
0
100
AcDbPoint
 10
37.75
 20
92.59999999999999
 30
0.0
  0
POINT
  5
F00
330
11D
100
AcDbEntity
  8
0
100
AcDbPoint
 10
55.5
 20
95.44999999999999
 30
0.0
  0
POINT
  5
F03
330
11D
100
AcDbEntity
  8
0
100
AcDbPoint
 10
64.075
 20
87.5
 30
0.0
  0
POINT
  5
F06
330
11D
100
AcDbEntity
  8
0
100
AcDbPoint
 10
51.075
 20
85.92499999999999
 30
0.0
  0
POINT
  5
F09
330
11D
100
AcDbEntity
  8
0
100
AcDbPoint
 10
42.5
 20
88.15000000000001
 30
0.0
  0
POINT
  5
F0C
330
11D
100
AcDbEntity
  8
0
100
AcDbPoint
 10
67.54999999999999
 20
76.72499999999999
 30
0.0
  0
POINT
  5
F0F
330
11D
100
AcDbEntity
  8
0
100
AcDbPoint
 10
59.325
 20
75.775
 30
0.0
  0
POINT
  5
F12
330
11D
100
AcDbEntity
  8
0
100
AcDbPoint
 10
68.2
 20
58.65
 30
0.0
  0
POINT
  5
F15
330
11D
100
AcDbEntity
  8
0
100
AcDbPoint
 10
63.75
 20
61.17499999999999
 30
0.0
  0
POINT
  5
F18
330
11D
100
AcDbEntity
  8
0
100
AcDbPoint
 10
67.875
 20
66.25
 30
0.0
  0
POINT
  5
F1B
330
11D
100
AcDbEntity
  8
0
100
AcDbPoint
 10
63.45
 20
69.75
 30
0.0
  0
POINT
  5
F1E
330
11D
100
AcDbEntity
  8
0
100
AcDbPoint
 10
52.975
 20
69.75
 30
0.0
  0
POINT
  5
F21
330
11D
100
AcDbEntity
  8
0
100
AcDbPoint
 10
46.95
 20
72.275
 30
0.0
  0
POINT
  5
F24
330
11D
100
AcDbEntity
  8
0
100
AcDbPoint
 10
36.15
 20
85.92499999999999
 30
0.0
  0
POINT
  5
F27
330
11D
100
AcDbEntity
  8
0
100
AcDbPoint
 10
58.67499999999999
 20
64.675
 30
0.0
  0
POINT
  5
F2A
330
11D
100
AcDbEntity
  8
0
100
AcDbPoint
 10
53.6
 20
77.05
 30
0.0
  0
POINT
  5
F2D
330
11D
100
AcDbEntity
  8
0
100
AcDbPoint
 10
54.875
 20
54.1
 30
0.0
  0
POINT
  5
F30
330
11D
100
AcDbEntity
  8
0
100
AcDbPoint
 10
53.6
 20
57.6
 30
0.0
  0
POINT
  5
F33
330
11D
100
AcDbEntity
  8
0
100
AcDbPoint
 10
58.35
 20
49.64999999999999
 30
0.0
  0
POINT
  5
F36
330
11D
100
AcDbEntity
  8
0
100
AcDbPoint
 10
60.89999999999999
 20
47.125
 30
0.0
  0
POINT
  5
F39
330
11D
100
AcDbEntity
  8
0
100
AcDbPoint
 10
65.975
 20
43.325
 30
0.0
  0
POINT
  5
F3C
330
11D
100
AcDbEntity
  8
0
100
AcDbPoint
 10
70.72499999999999
 20
41.1
 30
0.0
  0
POINT
  5
F3F
330
11D
100
AcDbEntity
  8
0
100
AcDbPoint
 10
72.325
 20
39.5
 30
0.0
  0
POINT
  5
F42
330
11D
100
AcDbEntity
  8
0
100
AcDbPoint
 10
71.375
 20
34.125
 30
0.0
  0
POINT
  5
F45
330
11D
100
AcDbEntity
  8
0
100
AcDbPoint
 10
66.92499999999999
 20
39.5
 30
0.0
  0
POINT
  5
F48
330
11D
100
AcDbEntity
  8
0
100
AcDbPoint
 10
64.075
 20
42.675
 30
0.0
  0
POINT
  5
F4B
330
11D
100
AcDbEntity
  8
0
100
AcDbPoint
 10
58.67499999999999
 20
45.525
 30
0.0
  0
POINT
  5
F4E
330
11D
100
AcDbEntity
  8
0
100
AcDbPoint
 10
64.7
 20
36.325
 30
0.0
  0
POINT
  5
F51
330
11D
100
AcDbEntity
  8
0
100
AcDbPoint
 10
67.54999999999999
 20
35.075
 30
0.0
  0
POINT
  5
F54
330
11D
100
AcDbEntity
  8
0
100
AcDbPoint
 10
66.92499999999999
 20
30.3
 30
0.0
  0
POINT
  5
F57
330
11D
100
AcDbEntity
  8
0
100
AcDbPoint
 10
71.375
 20
27.45
 30
0.0
  0
POINT
  5
F5A
330
11D
100
AcDbEntity
  8
0
100
AcDbPoint
 10
68.525
 20
22.05
 30
0.0
  0
POINT
  5
F5D
330
11D
100
AcDbEntity
  8
0
100
AcDbPoint
 10
80.95
 20
19.8
 30
0.0
  0
POINT
  5
F60
330
11D
100
AcDbEntity
  8
0
100
AcDbPoint
 10
84.04999999999999
 20
37.175
 30
0.0
  0
POINT
  5
F63
330
11D
100
AcDbEntity
  8
0
100
AcDbPoint
 10
81.85
 20
38.125
 30
0.0
  0
POINT
  5
F66
330
11D
100
AcDbEntity
  8
0
100
AcDbPoint
 10
79.29999999999999
 20
37.8
 30
0.0
  0
LINE
  5
F69
330
11D
100
AcDbEntity
  8
0
370
    20
100
AcDbLine
 10
82.15000000000001
 20
27.025
 30
0.0
 11
77.72499999999999
 21
28.3
 31
0.0
  0
LINE
  5
F6C
330
11D
100
AcDbEntity
  8
0
370
    20
100
AcDbLine
 10
77.72499999999999
 20
28.3
 30
0.0
 11
80.25
 21
28.3
 31
0.0
  0
POINT
  5
F6F
330
11D
100
AcDbEntity
  8
0
100
AcDbPoint
 10
95.15
 20
33.1
 30
0.0
  0
POINT
  5
F72
330
11D
100
AcDbEntity
  8
0
100
AcDbPoint
 10
100.15
 20
34.8
 30
0.0
  0
POINT
  5
F75
330
11D
100
AcDbEntity
  8
0
100
AcDbPoint
 10
104.375
 20
33.25
 30
0.0
  0
POINT
  5
F78
330
11D
100
AcDbEntity
  8
0
100
AcDbPoint
 10
43.45
 20
66.84999999999999
 30
0.0
  0
POINT
  5
F7B
330
11D
100
AcDbEntity
  8
0
100
AcDbPoint
 10
50.15
 20
63.39999999999999
 30
0.0
  0
POINT
  5
F7E
330
11D
100
AcDbEntity
  8
0
100
AcDbPoint
 10
46.875
 20
65.9
 30
0.0
  0
POINT
  5
F81
330
11D
100
AcDbEntity
  8
0
100
AcDbPoint
 10
50.0
 20
60.6
 30
0.0
  0
POINT
  5
F84
330
11D
100
AcDbEntity
  8
0
100
AcDbPoint
 10
47.64999999999999
 20
63.25
 30
0.0
  0
POINT
  5
F87
330
11D
100
AcDbEntity
  8
0
100
AcDbPoint
 10
51.875
 20
56.85
 30
0.0
  0
LWPOLYLINE
  5
10000062
330
11D
100
AcDbEntity
  8
0
  6
DASHED
 62
     7
370
    30
100
AcDbPolyline
 90
        3
 70
     0
 43
0.0
 10
63.75
 20
165.875
 10
65.17157700102973
 20
173.530507193313
 10
66.29999999999999
 20
180.475
  0
ENDSEC
  0
SECTION
  2
OBJECTS
  0
DICTIONARY
  5
F92
330
0
100
AcDbDictionary
281
     1
  3
ACAD_COLOR
350
F93
  3
ACAD_GROUP
350
F94
  3
ACAD_LAYOUT
350
F95
  3
ACAD_MATERIAL
350
F96
  3
ACAD_MLEADERSTYLE
350
10000050
  3
ACAD_MLINESTYLE
350
F97
  3
ACAD_PLOTSETTINGS
350
10000053
  3
ACAD_PLOTSTYLENAME
350
10000001
  3
ACAD_SCALELIST
350
1000002E
  3
ACAD_TABLESTYLE
350
1000002C
  3
ACAD_VISUALSTYLE
350
1000001B
  3
ACDB_RECOMPOSE_DATA
350
100000B3
  3
AcDbVariableDictionary
350
1000009C
  3
CONTENTDICTIONARY
350
F9D
  0
DICTIONARY
  5
10000065
330
CF
100
AcDbDictionary
280
     1
281
     1
  3
ADSK_XREC_LAYER_RECONCILED
360
10000066
  0
DICTIONARY
  5
10000067
330
D2
100
AcDbDictionary
280
     1
281
     1
  3
ADSK_XREC_LAYER_RECONCILED
360
10000068
  0
DICTIONARY
  5
10000069
330
D5
100
AcDbDictionary
280
     1
281
     1
  3
ADSK_XREC_LAYER_RECONCILED
360
1000006A
  0
DICTIONARY
  5
1000006B
330
D8
100
AcDbDictionary
280
     1
281
     1
  3
ADSK_XREC_LAYER_RECONCILED
360
1000006C
  0
DICTIONARY
  5
1000006D
330
DB
100
AcDbDictionary
280
     1
281
     1
  3
ADSK_XREC_LAYER_RECONCILED
360
1000006E
  0
DICTIONARY
  5
1000006F
330
DE
100
AcDbDictionary
280
     1
281
     1
  3
ADSK_XREC_LAYER_RECONCILED
360
10000070
  0
DICTIONARY
  5
10000071
330
E1
100
AcDbDictionary
280
     1
281
     1
  3
ADSK_XREC_LAYER_RECONCILED
360
10000072
  0
DICTIONARY
  5
10000073
330
E4
100
AcDbDictionary
280
     1
281
     1
  3
ADSK_XREC_LAYER_RECONCILED
360
10000074
  0
DICTIONARY
  5
10000075
330
E7
100
AcDbDictionary
280
     1
281
     1
  3
ADSK_XREC_LAYER_RECONCILED
360
10000076
  0
DICTIONARY
  5
10000077
330
EA
100
AcDbDictionary
280
     1
281
     1
  3
ADSK_XREC_LAYER_RECONCILED
360
10000078
  0
DICTIONARY
  5
10000079
330
ED
100
AcDbDictionary
280
     1
281
     1
  3
ADSK_XREC_LAYER_RECONCILED
360
1000007A
  0
DICTIONARY
  5
1000007B
330
F0
100
AcDbDictionary
280
     1
281
     1
  3
ADSK_XREC_LAYER_RECONCILED
360
1000007C
  0
DICTIONARY
  5
1000007D
330
F3
100
AcDbDictionary
280
     1
281
     1
  3
ADSK_XREC_LAYER_RECONCILED
360
1000007E
  0
DICTIONARY
  5
1000007F
330
F6
100
AcDbDictionary
280
     1
281
     1
  3
ADSK_XREC_LAYER_RECONCILED
360
10000080
  0
DICTIONARY
  5
10000063
330
11D
100
AcDbDictionary
280
     1
281
     1
  3
ACAD_SORTENTS
360
10000064
  0
DICTIONARY
  5
F93
102
{ACAD_REACTORS
330
F92
102
}
330
F92
100
AcDbDictionary
281
     1
  0
DICTIONARY
  5
F94
102
{ACAD_REACTORS
330
F92
102
}
330
F92
100
AcDbDictionary
281
     1
  3
Layout1
350
F9E
  3
Layout2
350
F9F
  0
DICTIONARY
  5
F95
102
{ACAD_REACTORS
330
F92
102
}
330
F92
100
AcDbDictionary
281
     1
  3
Model
350
10000054
  3
レイアウト1
350
10000055
  0
DICTIONARY
  5
F96
102
{ACAD_REACTORS
330
F92
102
}
330
F92
100
AcDbDictionary
281
     1
  3
ByBlock
350
1000000B
  3
ByLayer
350
10000003
  3
Global
350
10000013
  0
DICTIONARY
  5
10000050
102
{ACAD_REACTORS
330
F92
102
}
330
F92
100
AcDbDictionary
281
     1
  3
Standard
350
10000051
  0
DICTIONARY
  5
F97
102
{ACAD_REACTORS
330
F92
102
}
330
F92
100
AcDbDictionary
281
     1
  3
Standard
350
FA0
  0
DICTIONARY
  5
10000053
102
{ACAD_REACTORS
330
F92
102
}
330
F92
100
AcDbDictionary
281
     1
  0
ACDBDICTIONARYWDFLT
  5
10000001
102
{ACAD_REACTORS
330
F92
102
}
330
F92
100
AcDbDictionary
281
     1
  3
Normal
350
10000002
100
AcDbDictionaryWithDefault
340
10000002
  0
DICTIONARY
  5
1000002E
102
{ACAD_REACTORS
330
F92
102
}
330
F92
100
AcDbDictionary
281
     1
  3
A0
350
1000002F
  3
A1
350
10000030
  3
A2
350
10000031
  3
A3
350
10000032
  3
A4
350
10000033
  3
A5
350
10000034
  3
A6
350
10000035
  3
A7
350
10000036
  3
A8
350
10000037
  3
A9
350
10000038
  3
B0
350
10000039
  3
B1
350
1000003A
  3
B2
350
1000003B
  3
B3
350
1000003C
  3
B4
350
1000003D
  3
B5
350
1000003E
  3
B6
350
1000003F
  3
B7
350
10000040
  3
B8
350
10000041
  3
B9
350
10000042
  3
C0
350
10000043
  3
C1
350
10000044
  3
C2
350
10000045
  3
C3
350
10000046
  3
C4
350
10000047
  3
C5
350
10000048
  3
C6
350
10000049
  3
C7
350
1000004A
  3
C8
350
1000004B
  3
C9
350
1000004C
  3
D0
350
1000004D
  3
D1
350
1000004E
  3
D2
350
1000004F
  0
DICTIONARY
  5
1000002C
102
{ACAD_REACTORS
330
F92
102
}
330
F92
100
AcDbDictionary
281
     1
  3
Standard
350
1000002D
  0
DICTIONARY
  5
1000001B
102
{ACAD_REACTORS
330
F92
102
}
330
F92
100
AcDbDictionary
281
     1
  3
2dWireframe
350
10000021
  3
3D Hidden
350
10000023
  3
3dWireframe
350
10000022
  3
Basic
350
10000020
  3
Brighten
350
10000027
  3
ColorChange
350
1000002B
  3
Conceptual
350
10000024
  3
Dim
350
10000026
  3
Facepattern
350
1000002A
  3
Flat
350
1000001C
  3
FlatWithEdges
350
1000001D
  3
Gouraud
350
1000001E
  3
GouraudWithEdges
350
1000001F
  3
Linepattern
350
10000029
  3
Realistic
350
10000025
  3
Thicken
350
10000028
  0
XRECORD
  5
100000B3
102
{ACAD_REACTORS
330
F92
102
}
330
F92
100
AcDbXrecord
280
     1
 90
        1
330
1000002D
  0
DICTIONARY
  5
1000009C
102
{ACAD_REACTORS
330
F92
102
}
330
F92
100
AcDbDictionary
281
     1
  3
CANNOSCALE
350
100000A0
  3
CMLEADERSTYLE
350
1000009E
  3
CTABLESTYLE
350
1000009D
  3
LIGHTINGUNITS
350
100000A1
  3
MSLTSCALE
350
1000009F
  0
LAYOUT
  5
F9D
102
{ACAD_XDICTIONARY
360
12A8
102
}
102
{ACAD_REACTORS
330
F93
102
}
330
F93
100
AcDbPlotSettings
  1

  2

  4

  6

 40
0.0
 41
0.0
 42
0.0
 43
0.0
 44
0.0
 45
0.0
 46
0.0
 47
0.0
 48
0.0
 49
0.0
140
0.0
141
0.0
142
1.0
143
1.0
 70
   688
 72
     0
 73
     0
 74
     5
  7

 75
    16
147
1.0
 76
     0
 77
     2
 78
   300
148
0.0
149
0.0
100
AcDbLayout
  1
Layout1
 70
     1
 71
     1
 10
0.0
 20
0.0
 11
160.0
 21
242.0
 12
0.0
 22
0.0
 32
0.0
 14
1.000000000000000E+20
 24
1.000000000000000E+20
 34
1.000000000000000E+20
 15
-1.000000000000000E+20
 25
-1.000000000000000E+20
 35
-1.000000000000000E+20
146
0.0
 13
0.0
 23
0.0
 33
0.0
 16
1.0
 26
0.0
 36
0.0
 17
0.0
 27
1.0
 37
0.0
 76
     0
330
F97
  0
XRECORD
  5
10000066
102
{ACAD_REACTORS
330
10000065
102
}
330
10000065
100
AcDbXrecord
280
     1
290
     1
  0
XRECORD
  5
10000068
102
{ACAD_REACTORS
330
10000067
102
}
330
10000067
100
AcDbXrecord
280
     1
290
     1
  0
XRECORD
  5
1000006A
102
{ACAD_REACTORS
330
10000069
102
}
330
10000069
100
AcDbXrecord
280
     1
290
     1
  0
XRECORD
  5
1000006C
102
{ACAD_REACTORS
330
1000006B
102
}
330
1000006B
100
AcDbXrecord
280
     1
290
     1
  0
XRECORD
  5
1000006E
102
{ACAD_REACTORS
330
1000006D
102
}
330
1000006D
100
AcDbXrecord
280
     1
290
     1
  0
XRECORD
  5
10000070
102
{ACAD_REACTORS
330
1000006F
102
}
330
1000006F
100
AcDbXrecord
280
     1
290
     1
  0
XRECORD
  5
10000072
102
{ACAD_REACTORS
330
10000071
102
}
330
10000071
100
AcDbXrecord
280
     1
290
     1
  0
XRECORD
  5
10000074
102
{ACAD_REACTORS
330
10000073
102
}
330
10000073
100
AcDbXrecord
280
     1
290
     1
  0
XRECORD
  5
10000076
102
{ACAD_REACTORS
330
10000075
102
}
330
10000075
100
AcDbXrecord
280
     1
290
     1
  0
XRECORD
  5
10000078
102
{ACAD_REACTORS
330
10000077
102
}
330
10000077
100
AcDbXrecord
280
     1
290
     1
  0
XRECORD
  5
1000007A
102
{ACAD_REACTORS
330
10000079
102
}
330
10000079
100
AcDbXrecord
280
     1
290
     1
  0
XRECORD
  5
1000007C
102
{ACAD_REACTORS
330
1000007B
102
}
330
1000007B
100
AcDbXrecord
280
     1
290
     1
  0
XRECORD
  5
1000007E
102
{ACAD_REACTORS
330
1000007D
102
}
330
1000007D
100
AcDbXrecord
280
     1
290
     1
  0
XRECORD
  5
10000080
102
{ACAD_REACTORS
330
1000007F
102
}
330
1000007F
100
AcDbXrecord
280
     1
290
     1
  0
SORTENTSTABLE
  5
10000064
102
{ACAD_REACTORS
330
10000063
102
}
330
10000063
100
AcDbSortentsTable
330
11D
331
C30
  5
C33
331
CD8
  5
CDB
331
5A0
  5
5A3
331
899
  5
8B0
331
DAA
  5
DAD
331
64A
  5
661
331
F42
  5
F45
331
A9A
  5
A9D
331
371
  5
371
331
C63
  5
C66
331
51B
  5
51E
331
D0B
  5
D0E
331
5BB
  5
5BE
331
52C
  5
52F
331
2E3
  5
2E3
331
DDD
  5
DE0
331
75D
  5
760
331
ACD
  5
AD0
331
E8E
  5
E91
331
A25
  5
A28
331
5ED
  5
5F0
331
D26
  5
D29
331
3BE
  5
3C1
331
C96
  5
C99
331
BAF
  5
BB2
331
790
  5
793
331
A58
  5
A5B
331
620
  5
623
331
EC1
  5
EC4
331
D59
  5
D5C
331
E2B
  5
E2E
331
BE2
  5
BE5
331
A8B
  5
A8E
331
B4C
  5
B4F
331
684
  5
69B
331
F0F
  5
F12
331
E5E
  5
E61
331
CA5
  5
CA8
331
C15
  5
C18
331
55C
  5
55F
331
81C
  5
81F
331
7E9
  5
7EC
331
987
  5
98A
331
417
  5
420
331
1C5
  5
1C5
331
16A
  5
16A
331
E70
  5
E73
331
D89
  5
D8C
331
B91
  5
B94
331
F21
  5
F24
331
879
  5
87C
331
4C9
  5
4E0
331
350
  5
350
331
C42
  5
C45
331
6FA
  5
6FD
331
DBC
  5
DBF
331
CEA
  5
CED
331
5B2
  5
5B5
331
F54
  5
F57
331
A1C
  5
A1F
331
C75
  5
C78
331
73D
  5
740
331
DEF
  5
DF2
331
76F
  5
772
331
53E
  5
541
331
39D
  5
3A0
331
AAC
  5
AAF
331
A37
  5
A3A
331
EA0
  5
EA3
331
7C8
  5
7CB
331
420
  5
429
331
D38
  5
D3B
331
3D0
  5
3D3
331
E0A
  5
E0D
331
BC1
  5
BC4
331
F72
  5
F75
331
A6A
  5
A6D
331
10000062
  5
37D
331
ED3
  5
ED6
331
7FB
  5
7FE
331
E3D
  5
E40
331
BF4
  5
BF7
331
664
  5
667
331
D6B
  5
D6E
331
B19
  5
B28
331
5FF
  5
602
331
2C2
  5
2C2
331
288
  5
288
331
B5E
  5
B61
331
6C7
  5
6CA
331
56E
  5
571
331
CB7
  5
CBA
331
32F
  5
32F
331
25E
  5
25E
331
F00
  5
F03
331
6D9
  5
6DC
331
580
  5
583
331
C21
  5
C24
331
859
  5
85C
331
4A9
  5
4AC
331
CC9
  5
CCC
331
591
  5
594
331
D9B
  5
D9E
331
F33
  5
F36
331
BA3
  5
BA6
331
362
  5
362
331
29A
  5
29A
331
CFC
  5
CFF
331
C54
  5
C57
331
50C
  5
50F
331
8ED
  5
8F0
331
2D4
  5
2D4
331
DCE
  5
DD1
331
37D
  5
388
331
F66
  5
F69
331
ABE
  5
AC1
331
E7F
  5
E82
331
927
  5
92A
331
C87
  5
C8A
331
D17
  5
D1A
331
3AF
  5
3B2
331
781
  5
784
331
A49
  5
A4C
331
611
  5
614
331
AE0
  5
AE7
331
EB2
  5
EB5
331
7DA
  5
7DD
331
432
  5
43B
331
D4A
  5
D4D
331
BD3
  5
BD6
331
3F3
  5
3FC
331
F84
  5
F87
331
E1C
  5
E1F
331
B3D
  5
B40
331
A7C
  5
A7F
331
EE5
  5
EE8
331
80D
  5
810
331
D7D
  5
D80
331
54D
  5
550
331
E4F
  5
E52
331
C06
  5
C09
331
48E
  5
491
331
947
  5
95E
331
2F5
  5
2F5
331
244
  5
244
331
22B
  5
22B
331
212
  5
212
331
18E
  5
18E
331
175
  5
175
331
15B
  5
15B
331
CA8
  5
CAB
331
C18
  5
C1B
331
6B8
  5
6BB
331
F12
  5
F15
331
E61
  5
E64
331
C33
  5
C36
331
98A
  5
98D
331
CDB
  5
CDE
331
9B3
  5
9D6
331
5A3
  5
5A6
331
DAD
  5
DB0
331
A9D
  5
AA0
331
F45
  5
F48
331
8CD
  5
8D0
331
A0D
  5
A10
331
374
  5
374
331
C66
  5
C69
331
51E
  5
521
331
D0E
  5
D11
331
5BE
  5
5C1
331
2E6
  5
2E6
331
279
  5
279
331
907
  5
90A
331
52F
  5
532
331
DE0
  5
DE3
331
760
  5
763
331
AD0
  5
AD3
331
A28
  5
A2B
331
5F0
  5
5F3
331
E91
  5
E94
331
D29
  5
D2C
331
3C1
  5
3C4
331
7B9
  5
7BC
331
793
  5
796
331
A5B
  5
A5E
331
623
  5
626
331
EC4
  5
EC7
331
7EC
  5
7EF
331
444
  5
44D
331
E2E
  5
E31
331
BE5
  5
BE8
331
B4F
  5
B52
331
A8E
  5
A91
331
81F
  5
822
331
55F
  5
562
331
D5C
  5
D5F
331
BB2
  5
BB5
331
1D0
  5
1D0
331
1AF
  5
1AF
331
E40
  5
E43
331
EF1
  5
EF4
331
B61
  5
B64
331
6CA
  5
6CD
331
571
  5
574
331
49A
  5
4A3
331
CBA
  5
CBD
331
33A
  5
33A
331
E73
  5
E76
331
D8C
  5
D8F
331
B94
  5
B97
331
F24
  5
F27
331
87C
  5
893
331
353
  5
353
331
6FD
  5
700
331
C45
  5
C48
331
4FD
  5
500
331
DBF
  5
DC2
331
CED
  5
CF0
331
F57
  5
F5A
331
AAF
  5
AB2
331
A1F
  5
A22
331
C78
  5
C7B
331
740
  5
743
331
DF2
  5
DF5
331
772
  5
775
331
3A0
  5
3A3
331
5B5
  5
5B8
331
A3A
  5
A3D
331
EA3
  5
EA6
331
D3B
  5
D3E
331
3D3
  5
3D6
331
7CB
  5
7CE
331
F75
  5
F78
331
E0D
  5
E10
331
A6D
  5
A70
331
ED6
  5
ED9
331
7FE
  5
801
331
456
  5
459
331
BF7
  5
BFA
331
667
  5
67E
331
D6E
  5
D71
331
BC4
  5
BC7
331
602
  5
605
331
2C5
  5
2C5
331
28B
  5
28B
331
261
  5
261
331
B40
  5
B43
331
EE8
  5
EEB
331
810
  5
813
331
D80
  5
D83
331
550
  5
553
331
E52
  5
E55
331
C99
  5
C9C
331
C09
  5
C0C
331
491
  5
49A
331
F03
  5
F06
331
97B
  5
97E
331
583
  5
58E
331
C24
  5
C27
331
85C
  5
85F
331
4AC
  5
4C3
331
6DC
  5
6E5
331
CCC
  5
CCF
331
594
  5
597
331
B73
  5
B7C
331
2F8
  5
2F8
331
D9E
  5
DA1
331
F36
  5
F39
331
BA6
  5
BA9
331
365
  5
365
331
9D6
  5
9D9
331
CFF
  5
D02
331
C57
  5
C5A
331
50F
  5
512
331
8F0
  5
907
331
720
  5
723
331
DD1
  5
DD4
331
388
  5
38B
331
AC1
  5
AC4
331
2D7
  5
2D7
331
E82
  5
E85
331
5E1
  5
5E4
331
C8A
  5
C8D
331
D1A
  5
D1D
331
3B2
  5
3BB
331
784
  5
787
331
A4C
  5
A4F
331
614
  5
617
331
EB5
  5
EB8
331
D4D
  5
D50
331
7DD
  5
7E0
331
BD6
  5
BD9
331
F87
  5
10000062
331
E1F
  5
E22
331
636
  5
639
331
A7F
  5
A82
331
22E
  5
22E
331
1FC
  5
1FC
331
199
  5
199
331
15E
  5
15E
331
145
  5
145
331
E31
  5
E34
331
BE8
  5
BEB
331
A91
  5
A94
331
B52
  5
B55
331
822
  5
825
331
92A
  5
941
331
562
  5
565
331
CAB
  5
CAE
331
C1B
  5
C1E
331
E64
  5
E67
331
F15
  5
F18
331
B85
  5
B8E
331
83C
  5
83F
331
C36
  5
C39
331
6EE
  5
6F1
331
98D
  5
990
331
CDE
  5
CE1
331
5A6
  5
5A9
331
DB0
  5
DB3
331
700
  5
703
331
AA0
  5
AA3
331
F48
  5
F4B
331
8D0
  5
8D3
331
377
  5
377
331
27C
  5
27C
331
252
  5
252
331
A10
  5
A13
331
C69
  5
C6C
331
521
  5
52C
331
5C1
  5
5C4
331
90A
  5
90D
331
532
  5
535
331
DE3
  5
DE6
331
763
  5
766
331
A2B
  5
A2E
331
5F3
  5
5F6
331
AD3
  5
AD6
331
E94
  5
E97
331
D2C
  5
D2F
331
3C4
  5
3C7
331
7BC
  5
7BF
331
BB5
  5
BB8
331
796
  5
799
331
A5E
  5
A61
331
626
  5
62F
331
EC7
  5
ECA
331
D5F
  5
D62
331
7EF
  5
7F2
331
AF5
  5
B06
331
1BA
  5
1BA
331
178
  5
178
331
F78
  5
F7B
331
E10
  5
E13
331
B31
  5
B34
331
A70
  5
A73
331
ED9
  5
EDC
331
801
  5
804
331
459
  5
45C
331
D71
  5
D74
331
541
  5
544
331
BFA
  5
BFD
331
482
  5
48B
331
E43
  5
E46
331
69B
  5
69E
331
2E9
  5
2E9
331
EF4
  5
EF7
331
B64
  5
B67
331
CBD
  5
CC0
331
6CD
  5
6D0
331
574
  5
577
331
324
  5
324
331
E76
  5
E79
331
D8F
  5
D92
331
F27
  5
F2A
331
B97
  5
B9A
331
356
  5
356
331
C48
  5
C4B
331
8B0
  5
8B3
331
500
  5
503
331
DC2
  5
DC5
331
CF0
  5
CF3
331
F5A
  5
F5D
331
AB2
  5
AB5
331
C7B
  5
C7E
331
743
  5
75A
331
9F0
  5
9F3
331
DF5
  5
DF8
331
775
  5
778
331
3A3
  5
3A6
331
A3D
  5
A40
331
EA6
  5
EA9
331
D3E
  5
D41
331
3D6
  5
3D9
331
7CE
  5
7D1
331
3E7
  5
3EA
331
BC7
  5
BCA
331
605
  5
608
331
2C8
  5
2C8
331
28E
  5
28E
331
264
  5
264
331
B28
  5
B2B
331
EB8
  5
EBB
331
7E0
  5
7E3
331
D50
  5
D53
331
BD9
  5
BDC
331
E22
  5
E25
331
639
  5
63C
331
B43
  5
B46
331
EEB
  5
EEE
331
813
  5
816
331
A82
  5
A85
331
D83
  5
D86
331
553
  5
556
331
F06
  5
F09
331
E55
  5
E58
331
C9C
  5
C9F
331
C0C
  5
C0F
331
97E
  5
981
331
85F
  5
876
331
2FB
  5
2FB
331
239
  5
239
331
C27
  5
C2A
331
CCF
  5
CD2
331
597
  5
59A
331
4E0
  5
4E3
331
F39
  5
F3C
331
DA1
  5
DA4
331
368
  5
368
331
D02
  5
D05
331
C5A
  5
C5D
331
512
  5
515
331
723
  5
726
331
2DA
  5
2DA
331
DD4
  5
DD7
331
38B
  5
38E
331
AC4
  5
AC7
331
E85
  5
E88
331
5E4
  5
5E7
331
D1D
  5
D20
331
C8D
  5
C90
331
787
  5
78A
331
40E
  5
417
331
A4F
  5
A52
331
617
  5
61A
331
1E6
  5
1E6
331
183
  5
183
331
161
  5
161
331
150
  5
150
331
12F
  5
12F
331
BB8
  5
BBB
331
F69
  5
F6C
331
E01
  5
E04
331
799
  5
79C
331
ECA
  5
ECD
331
7F2
  5
7F5
331
E34
  5
E37
331
BEB
  5
BEE
331
A94
  5
A97
331
D62
  5
D65
331
A61
  5
A64
331
B55
  5
B58
331
825
  5
83C
331
C1E
  5
C21
331
6BE
  5
6C1
331
565
  5
568
331
CAE
  5
CB1
331
95E
  5
961
331
E67
  5
E6A
331
F18
  5
F1B
331
83F
  5
842
331
990
  5
993
331
C39
  5
C3C
331
6F1
  5
6F4
331
CE1
  5
CE4
331
9D9
  5
9F0
331
5A9
  5
5AC
331
DB3
  5
DB6
331
AA3
  5
AA6
331
F4B
  5
F4E
331
8D3
  5
8EA
331
C6C
  5
C6F
331
5C4
  5
5C7
331
A13
  5
A16
331
90D
  5
924
331
535
  5
538
331
703
  5
706
331
DE6
  5
DE9
331
AD6
  5
AD9
331
AE7
  5
AEE
331
A2E
  5
A31
331
5F6
  5
5F9
331
E97
  5
E9A
331
D2F
  5
D32
331
3C7
  5
3CA
331
7BF
  5
7C2
331
766
  5
769
331
2B9
  5
2B9
331
27F
  5
27F
331
255
  5
255
331
DF8
  5
DFB
331
778
  5
77B
331
A40
  5
A43
331
608
  5
611
331
EA9
  5
EAC
331
7D1
  5
7D4
331
429
  5
432
331
D41
  5
D44
331
3D9
  5
3DC
331
F7B
  5
F7E
331
E13
  5
E16
331
3EA
  5
3F3
331
B34
  5
B37
331
EDC
  5
EDF
331
804
  5
807
331
45C
  5
479
331
A73
  5
A76
331
BCA
  5
BCD
331
D74
  5
D77
331
544
  5
547
331
BFD
  5
C00
331
E46
  5
E49
331
69E
  5
6A1
331
30E
  5
30E
331
2EC
  5
2EC
331
EF7
  5
EFA
331
B67
  5
B6A
331
CC0
  5
CC3
331
6D0
  5
6D3
331
577
  5
57A
331
D92
  5
D95
331
F2A
  5
F2D
331
B9A
  5
B9D
331
359
  5
359
331
C4B
  5
C4E
331
8B3
  5
8B6
331
503
  5
506
331
DC5
  5
DC8
331
CF3
  5
CF6
331
F5D
  5
F60
331
AB5
  5
AB8
331
3A6
  5
3A9
331
C7E
  5
C81
331
9F3
  5
9F6
331
2CB
  5
2CB
331
291
  5
291
331
267
  5
267
331
E88
  5
E8B
331
D20
  5
D23
331
C90
  5
C93
331
BA9
  5
BAC
331
78A
  5
78D
331
B2B
  5
B2E
331
A52
  5
A55
331
61A
  5
61D
331
EBB
  5
EBE
331
7E3
  5
7E6
331
43B
  5
444
331
BDC
  5
BDF
331
E25
  5
E28
331
63C
  5
647
331
3FC
  5
405
331
D53
  5
D56
331
B46
  5
B49
331
67E
  5
681
331
EEE
  5
EF1
331
816
  5
819
331
A85
  5
A88
331
D86
  5
D89
331
556
  5
559
331
F09
  5
F0C
331
E58
  5
E5B
331
C9F
  5
CA2
331
C0F
  5
C12
331
981
  5
984
331
2FE
  5
2FE
331
1F1
  5
1F1
331
C2A
  5
C2D
331
CD2
  5
CD5
331
59A
  5
59D
331
893
  5
896
331
4E3
  5
4E6
331
F3C
  5
F3F
331
DA4
  5
DA7
331
36B
  5
36B
331
D05
  5
D08
331
C5D
  5
C60
331
515
  5
518
331
726
  5
73D
331
DD7
  5
DDA
331
38E
  5
39D
331
5E7
  5
5EA
331
AC7
  5
ACA
331
2DD
  5
2DD
331
164
  5
164
331
13A
  5
13A
331
DE9
  5
DEC
331
769
  5
76C
331
538
  5
53B
331
A31
  5
A34
331
5F9
  5
5FC
331
AD9
  5
AE0
331
E9A
  5
E9D
331
D32
  5
D35
331
3CA
  5
3CD
331
7C2
  5
7C5
331
F6C
  5
F6F
331
E04
  5
E07
331
79C
  5
79F
331
ECD
  5
ED0
331
7F5
  5
7F8
331
44D
  5
456
331
A64
  5
A67
331
E37
  5
E3A
331
BEE
  5
BF1
331
A97
  5
A9A
331
D65
  5
D68
331
BBB
  5
BBE
331
B58
  5
B5B
331
CB1
  5
CB4
331
961
  5
964
331
6C1
  5
6C4
331
568
  5
56B
331
E6A
  5
E6D
331
842
  5
859
331
F1B
  5
F1E
331
4C3
  5
4C6
331
993
  5
996
331
C3C
  5
C3F
331
6F4
  5
6F7
331
CE4
  5
CE7
331
5AC
  5
5AF
331
DB6
  5
DB9
331
F4E
  5
F51
331
AA6
  5
AA9
331
C6F
  5
C72
331
A16
  5
A19
331
5C7
  5
5CA
331
706
  5
709
331
2BC
  5
2BC
331
282
  5
282
331
258
  5
258
331
DC8
  5
DCB
331
F60
  5
F63
331
AB8
  5
ABB
331
C81
  5
C84
331
D11
  5
D14
331
3A9
  5
3AC
331
E79
  5
E7C
331
DFB
  5
DFE
331
77B
  5
77E
331
EAC
  5
EAF
331
7D4
  5
7D7
331
D44
  5
D47
331
3DC
  5
3E7
331
A43
  5
A46
331
7A2
  5
7B9
331
F7E
  5
F81
331
E16
  5
E19
331
BCD
  5
BD0
331
A76
  5
A79
331
B37
  5
B3A
331
647
  5
64A
331
EDF
  5
EE2
331
807
  5
80A
331
D77
  5
D7A
331
547
  5
54A
331
C00
  5
C03
331
E49
  5
E4C
331
6A1
  5
6B8
331
941
  5
944
331
319
  5
319
331
2EF
  5
2EF
331
EFA
  5
EFD
331
B6A
  5
B73
331
6D3
  5
6D6
331
57A
  5
57D
331
CC3
  5
CC6
331
4A3
  5
4A6
331
D95
  5
D98
331
F2D
  5
F30
331
B9D
  5
BA0
331
35C
  5
35C
331
C4E
  5
C51
331
8B6
  5
8CD
331
506
  5
509
331
CF6
  5
CF9
331
9F6
  5
A0D
331
2CE
  5
2CE
331
294
  5
294
331
26A
  5
26A
331
24F
  5
24F
331
21D
  5
21D
331
C60
  5
C63
331
518
  5
51B
331
D08
  5
D0B
331
5B8
  5
5BB
331
DDA
  5
DDD
331
ACA
  5
ACD
331
A22
  5
A25
331
5EA
  5
5ED
331
75A
  5
75D
331
2E0
  5
2E0
331
E8B
  5
E8E
331
C93
  5
C96
331
D23
  5
D26
331
3BB
  5
3BE
331
78D
  5
790
331
B2E
  5
B31
331
A55
  5
A58
331
61D
  5
620
331
EBE
  5
EC1
331
D56
  5
D59
331
E28
  5
E2B
331
BDF
  5
BE2
331
A88
  5
A8B
331
B49
  5
B4C
331
681
  5
684
331
819
  5
81C
331
7E6
  5
7E9
331
BAC
  5
BAF
331
E5B
  5
E5E
331
CA2
  5
CA5
331
C12
  5
C15
331
559
  5
55C
331
F0C
  5
F0F
331
B7C
  5
B85
331
984
  5
987
331
C2D
  5
C30
331
6E5
  5
6EE
331
CD5
  5
CD8
331
59D
  5
5A0
331
896
  5
899
331
4E6
  5
4FD
331
F3F
  5
F42
331
DA7
  5
DAA
331
36E
  5
36E
331
301
  5
301
331
1DB
  5
1DB
331
167
  5
167
331
DB9
  5
DBC
331
709
  5
720
331
F51
  5
F54
331
AA9
  5
AAC
331
C72
  5
C75
331
A19
  5
A1C
331
5CA
  5
5E1
331
DEC
  5
DEF
331
76C
  5
76F
331
53B
  5
53E
331
A34
  5
A37
331
E9D
  5
EA0
331
D35
  5
D38
331
3CD
  5
3D0
331
7C5
  5
7C8
331
5FC
  5
5FF
331
BBE
  5
BC1
331
E07
  5
E0A
331
79F
  5
7A2
331
F6F
  5
F72
331
62F
  5
636
331
ED0
  5
ED3
331
7F8
  5
7FB
331
661
  5
664
331
D68
  5
D6B
331
E3A
  5
E3D
331
BF1
  5
BF4
331
479
  5
482
331
A67
  5
A6A
331
B06
  5
B19
331
B5B
  5
B5E
331
CB4
  5
CB7
331
964
  5
97B
331
6C4
  5
6C7
331
56B
  5
56E
331
E6D
  5
E70
331
B8E
  5
B91
331
F1E
  5
F21
331
876
  5
879
331
4C6
  5
4C9
331
996
  5
9B3
331
345
  5
345
331
C3F
  5
C42
331
6F7
  5
6FA
331
CE7
  5
CEA
331
5AF
  5
5B2
331
2BF
  5
2BF
331
285
  5
285
331
25B
  5
25B
331
D98
  5
D9B
331
F30
  5
F33
331
BA0
  5
BA3
331
CF9
  5
CFC
331
C51
  5
C54
331
509
  5
50C
331
8EA
  5
8ED
331
DCB
  5
DCE
331
F63
  5
F66
331
ABB
  5
ABE
331
E7C
  5
E7F
331
924
  5
927
331
2D1
  5
2D1
331
C84
  5
C87
331
D14
  5
D17
331
3AC
  5
3AF
331
DFE
  5
E01
331
77E
  5
781
331
A46
  5
A49
331
AEE
  5
AF5
331
405
  5
40E
331
EAF
  5
EB2
331
7D7
  5
7DA
331
D47
  5
D4A
331
F81
  5
F84
331
E19
  5
E1C
331
BD0
  5
BD3
331
B3A
  5
B3D
331
A79
  5
A7C
331
EE2
  5
EE5
331
80A
  5
80D
331
D7A
  5
D7D
331
54A
  5
54D
331
E4C
  5
E4F
331
C03
  5
C06
331
48B
  5
48E
331
EFD
  5
F00
331
6D6
  5
6D9
331
57D
  5
580
331
CC6
  5
CC9
331
58E
  5
591
331
4A6
  5
4A9
331
944
  5
947
331
2F2
  5
2F2
331
35F
  5
35F
331
297
  5
297
331
228
  5
228
331
207
  5
207
331
1A4
  5
1A4
  0
LAYOUT
  5
F9E
102
{ACAD_XDICTIONARY
360
12AA
102
}
102
{ACAD_REACTORS
330
F93
102
}
330
F93
100
AcDbPlotSettings
  1

  2

  4

  6

 40
0.0
 41
0.0
 42
0.0
 43
0.0
 44
0.0
 45
0.0
 46
0.0
 47
0.0
 48
0.0
 49
0.0
140
0.0
141
0.0
142
1.0
143
1.0
 70
   688
 72
     0
 73
     0
 74
     5
  7

 75
    16
147
1.0
 76
     0
 77
     2
 78
   300
148
0.0
149
0.0
100
AcDbLayout
  1
Layout2
 70
     1
 71
     2
 10
0.0
 20
0.0
 11
160.0
 21
242.0
 12
0.0
 22
0.0
 32
0.0
 14
0.0
 24
0.0
 34
0.0
 15
0.0
 25
0.0
 35
0.0
146
0.0
 13
0.0
 23
0.0
 33
0.0
 16
1.0
 26
0.0
 36
0.0
 17
0.0
 27
1.0
 37
0.0
 76
     0
330
F9E
  0
LAYOUT
  5
F9F
102
{ACAD_XDICTIONARY
360
12AC
102
}
102
{ACAD_REACTORS
330
F93
102
}
330
F93
100
AcDbPlotSettings
  1

  2

  4

  6

 40
0.0
 41
0.0
 42
0.0
 43
0.0
 44
0.0
 45
0.0
 46
0.0
 47
0.0
 48
0.0
 49
0.0
140
0.0
141
0.0
142
1.0
143
1.0
 70
  1712
 72
     0
 73
     0
 74
     0
  7

 75
    16
147
1.0
 76
     0
 77
     2
 78
   300
148
0.0
149
0.0
100
AcDbLayout
  1
Model
 70
     1
 71
     0
 10
0.0
 20
0.0
 11
160.0
 21
242.0
 12
0.0
 22
0.0
 32
0.0
 14
0.0
 24
0.0
 34
0.0
 15
0.0
 25
0.0
 35
0.0
146
0.0
 13
0.0
 23
0.0
 33
0.0
 16
1.0
 26
0.0
 36
0.0
 17
0.0
 27
1.0
 37
0.0
 76
     0
330
F9F
  0
LAYOUT
  5
10000054
102
{ACAD_REACTORS
330
F95
102
}
330
F95
100
AcDbPlotSettings
  1

  2
C:\Documents and Settings\nkoba\Application Data\Autodesk\AutoCAD 2008\R17.1\jpn\plotters\HP Designjet 500 42+HPGL2 Card.pc3
  4

  6

 40
0.0
 41
0.0
 42
0.0
 43
0.0
 44
0.0
 45
0.0
 46
0.0
 47
0.0
 48
0.0
 49
0.0
140
0.0
141
0.0
142
1.0
143
1.0
 70
  1712
 72
     0
 73
     0
 74
     0
  7

 75
     0
147
1.0
 76
     0
 77
     2
 78
   300
148
0.0
149
0.0
100
AcDbLayout
  1
Model
 70
     1
 71
     0
 10
0.0
 20
0.0
 11
12.0
 21
9.0
 12
0.0
 22
0.0
 32
0.0
 14
0.0
 24
0.0
 34
0.0
 15
0.0
 25
0.0
 35
0.0
146
0.0
 13
0.0
 23
0.0
 33
0.0
 16
1.0
 26
0.0
 36
0.0
 17
0.0
 27
1.0
 37
0.0
 76
     0
330
11D
331
A5
  0
LAYOUT
  5
10000055
102
{ACAD_REACTORS
330
F95
102
}
330
F95
100
AcDbPlotSettings
  1

  2
C:\Documents and Settings\nkoba\Application Data\Autodesk\AutoCAD 2008\R17.1\jpn\plotters\HP Designjet 500 42+HPGL2 Card.pc3
  4

  6

 40
0.0
 41
0.0
 42
0.0
 43
0.0
 44
0.0
 45
0.0
 46
0.0
 47
0.0
 48
0.0
 49
0.0
140
0.0
141
0.0
142
1.0
143
1.0
 70
   688
 72
     0
 73
     0
 74
     5
  7

 75
    16
147
1.0
 76
     0
 77
     2
 78
   300
148
0.0
149
0.0
100
AcDbLayout
  1
レイアウト1
 70
     1
 71
     1
 10
0.0
 20
0.0
 11
160.0
 21
242.0
 12
0.0
 22
0.0
 32
0.0
 14
1.000000000000000E+20
 24
1.000000000000000E+20
 34
1.000000000000000E+20
 15
-1.000000000000000E+20
 25
-1.000000000000000E+20
 35
-1.000000000000000E+20
146
0.0
 13
0.0
 23
0.0
 33
0.0
 16
1.0
 26
0.0
 36
0.0
 17
0.0
 27
1.0
 37
0.0
 76
     0
330
120
  0
MATERIAL
  5
1000000B
102
{ACAD_XDICTIONARY
360
1000000C
102
}
102
{ACAD_REACTORS
330
F96
102
}
330
F96
100
AcDbMaterial
  1
ByBlock
 72
     0
 43
0.0208333333333333
 43
0.0
 43
0.0
 43
0.0
 43
0.0
 43
0.0208333333333333
 43
0.0
 43
0.0
 43
0.0
 43
0.0
 43
1.0
 43
0.0
 43
0.0
 43
0.0
 43
0.0
 43
1.0
 77
     0
 47
0.0208333333333333
 47
0.0
 47
0.0
 47
0.0
 47
0.0
 47
0.0208333333333333
 47
0.0
 47
0.0
 47
0.0
 47
0.0
 47
1.0
 47
0.0
 47
0.0
 47
0.0
 47
0.0
 47
1.0
171
     0
 49
0.0208333333333333
 49
0.0
 49
0.0
 49
0.0
 49
0.0
 49
0.0208333333333333
 49
0.0
 49
0.0
 49
0.0
 49
0.0
 49
1.0
 49
0.0
 49
0.0
 49
0.0
 49
0.0
 49
1.0
175
     0
142
0.0208333333333333
142
0.0
142
0.0
142
0.0
142
0.0
142
0.0208333333333333
142
0.0
142
0.0
142
0.0
142
0.0
142
1.0
142
0.0
142
0.0
142
0.0
142
0.0
142
1.0
179
     0
144
0.0208333333333333
144
0.0
144
0.0
144
0.0
144
0.0
144
0.0208333333333333
144
0.0
144
0.0
144
0.0
144
0.0
144
1.0
144
0.0
144
0.0
144
0.0
144
0.0
144
1.0
147
0.0208333333333333
147
0.0
147
0.0
147
0.0
147
0.0
147
0.0208333333333333
147
0.0
147
0.0
147
0.0
147
0.0
147
1.0
147
0.0
147
0.0
147
0.0
147
0.0
147
1.0
  0
MATERIAL
  5
10000003
102
{ACAD_XDICTIONARY
360
10000004
102
}
102
{ACAD_REACTORS
330
F96
102
}
330
F96
100
AcDbMaterial
  1
ByLayer
 72
     0
 43
0.0208333333333333
 43
0.0
 43
0.0
 43
0.0
 43
0.0
 43
0.0208333333333333
 43
0.0
 43
0.0
 43
0.0
 43
0.0
 43
1.0
 43
0.0
 43
0.0
 43
0.0
 43
0.0
 43
1.0
 77
     0
 47
0.0208333333333333
 47
0.0
 47
0.0
 47
0.0
 47
0.0
 47
0.0208333333333333
 47
0.0
 47
0.0
 47
0.0
 47
0.0
 47
1.0
 47
0.0
 47
0.0
 47
0.0
 47
0.0
 47
1.0
171
     0
 49
0.0208333333333333
 49
0.0
 49
0.0
 49
0.0
 49
0.0
 49
0.0208333333333333
 49
0.0
 49
0.0
 49
0.0
 49
0.0
 49
1.0
 49
0.0
 49
0.0
 49
0.0
 49
0.0
 49
1.0
175
     0
142
0.0208333333333333
142
0.0
142
0.0
142
0.0
142
0.0
142
0.0208333333333333
142
0.0
142
0.0
142
0.0
142
0.0
142
1.0
142
0.0
142
0.0
142
0.0
142
0.0
142
1.0
179
     0
144
0.0208333333333333
144
0.0
144
0.0
144
0.0
144
0.0
144
0.0208333333333333
144
0.0
144
0.0
144
0.0
144
0.0
144
1.0
144
0.0
144
0.0
144
0.0
144
0.0
144
1.0
147
0.0208333333333333
147
0.0
147
0.0
147
0.0
147
0.0
147
0.0208333333333333
147
0.0
147
0.0
147
0.0
147
0.0
147
1.0
147
0.0
147
0.0
147
0.0
147
0.0
147
1.0
  0
MATERIAL
  5
10000013
102
{ACAD_XDICTIONARY
360
10000014
102
}
102
{ACAD_REACTORS
330
F96
102
}
330
F96
100
AcDbMaterial
  1
Global
 72
     0
 43
0.0208333333333333
 43
0.0
 43
0.0
 43
0.0
 43
0.0
 43
0.0208333333333333
 43
0.0
 43
0.0
 43
0.0
 43
0.0
 43
1.0
 43
0.0
 43
0.0
 43
0.0
 43
0.0
 43
1.0
 77
     0
 47
0.0208333333333333
 47
0.0
 47
0.0
 47
0.0
 47
0.0
 47
0.0208333333333333
 47
0.0
 47
0.0
 47
0.0
 47
0.0
 47
1.0
 47
0.0
 47
0.0
 47
0.0
 47
0.0
 47
1.0
171
     0
 49
0.0208333333333333
 49
0.0
 49
0.0
 49
0.0
 49
0.0
 49
0.0208333333333333
 49
0.0
 49
0.0
 49
0.0
 49
0.0
 49
1.0
 49
0.0
 49
0.0
 49
0.0
 49
0.0
 49
1.0
175
     0
142
0.0208333333333333
142
0.0
142
0.0
142
0.0
142
0.0
142
0.0208333333333333
142
0.0
142
0.0
142
0.0
142
0.0
142
1.0
142
0.0
142
0.0
142
0.0
142
0.0
142
1.0
179
     0
144
0.0208333333333333
144
0.0
144
0.0
144
0.0
144
0.0
144
0.0208333333333333
144
0.0
144
0.0
144
0.0
144
0.0
144
1.0
144
0.0
144
0.0
144
0.0
144
0.0
144
1.0
147
0.0208333333333333
147
0.0
147
0.0
147
0.0
147
0.0
147
0.0208333333333333
147
0.0
147
0.0
147
0.0
147
0.0
147
1.0
147
0.0
147
0.0
147
0.0
147
0.0
147
1.0
  0
MLEADERSTYLE
  5
10000051
102
{ACAD_REACTORS
330
10000050
102
}
330
10000050
100
AcDbMLeaderStyle
170
     2
171
     1
172
     0
 90
        2
 40
0.0
 41
0.0
173
     1
 91
-1056964608
340
AB
 92
       -2
290
     1
 42
2.0
291
     1
 43
0.36
  3
Standard
 44
4.0
300

342
FC
174
     1
178
     6
175
     1
176
     0
 93
-1056964608
 45
4.0
292
     0
297
     0
 46
4.0
 94
-1056964608
 47
1.0
 49
1.0
140
1.0
293
     1
141
0.0
294
     1
177
     0
142
1.0
295
     0
296
     0
143
0.125
1001
ACAD_MLEADERVER
1070
     2
  0
MLINESTYLE
  5
FA0
102
{ACAD_REACTORS
330
F9F
102
}
330
F9F
100
AcDbMlineStyle
  2
STANDARD
 70
     0
  3
 
 62
   256
 51
90.0
 52
90.0
 71
     2
 49
0.5
 62
   256
  6
BYLAYER
 49
-0.5
 62
   256
  6
BYLAYER
  0
ACDBPLACEHOLDER
  5
10000002
102
{ACAD_REACTORS
330
10000001
102
}
330
10000001
  0
SCALE
  5
1000002F
102
{ACAD_REACTORS
330
1000002E
102
}
330
1000002E
100
AcDbScale
 70
     0
300
1:1
140
1.0
141
1.0
290
     1
  0
SCALE
  5
10000030
102
{ACAD_REACTORS
330
1000002E
102
}
330
1000002E
100
AcDbScale
 70
     0
300
1:2
140
1.0
141
2.0
290
     0
  0
SCALE
  5
10000031
102
{ACAD_REACTORS
330
1000002E
102
}
330
1000002E
100
AcDbScale
 70
     0
300
1:4
140
1.0
141
4.0
290
     0
  0
SCALE
  5
10000032
102
{ACAD_REACTORS
330
1000002E
102
}
330
1000002E
100
AcDbScale
 70
     0
300
1:5
140
1.0
141
5.0
290
     0
  0
SCALE
  5
10000033
102
{ACAD_REACTORS
330
1000002E
102
}
330
1000002E
100
AcDbScale
 70
     0
300
1:8
140
1.0
141
8.0
290
     0
  0
SCALE
  5
10000034
102
{ACAD_REACTORS
330
1000002E
102
}
330
1000002E
100
AcDbScale
 70
     0
300
1:10
140
1.0
141
10.0
290
     0
  0
SCALE
  5
10000035
102
{ACAD_REACTORS
330
1000002E
102
}
330
1000002E
100
AcDbScale
 70
     0
300
1:16
140
1.0
141
16.0
290
     0
  0
SCALE
  5
10000036
102
{ACAD_REACTORS
330
1000002E
102
}
330
1000002E
100
AcDbScale
 70
     0
300
1:20
140
1.0
141
20.0
290
     0
  0
SCALE
  5
10000037
102
{ACAD_REACTORS
330
1000002E
102
}
330
1000002E
100
AcDbScale
 70
     0
300
1:30
140
1.0
141
30.0
290
     0
  0
SCALE
  5
10000038
102
{ACAD_REACTORS
330
1000002E
102
}
330
1000002E
100
AcDbScale
 70
     0
300
1:40
140
1.0
141
40.0
290
     0
  0
SCALE
  5
10000039
102
{ACAD_REACTORS
330
1000002E
102
}
330
1000002E
100
AcDbScale
 70
     0
300
1:50
140
1.0
141
50.0
290
     0
  0
SCALE
  5
1000003A
102
{ACAD_REACTORS
330
1000002E
102
}
330
1000002E
100
AcDbScale
 70
     0
300
1:100
140
1.0
141
100.0
290
     0
  0
SCALE
  5
1000003B
102
{ACAD_REACTORS
330
1000002E
102
}
330
1000002E
100
AcDbScale
 70
     0
300
2:1
140
2.0
141
1.0
290
     0
  0
SCALE
  5
1000003C
102
{ACAD_REACTORS
330
1000002E
102
}
330
1000002E
100
AcDbScale
 70
     0
300
4:1
140
4.0
141
1.0
290
     0
  0
SCALE
  5
1000003D
102
{ACAD_REACTORS
330
1000002E
102
}
330
1000002E
100
AcDbScale
 70
     0
300
8:1
140
8.0
141
1.0
290
     0
  0
SCALE
  5
1000003E
102
{ACAD_REACTORS
330
1000002E
102
}
330
1000002E
100
AcDbScale
 70
     0
300
10:1
140
10.0
141
1.0
290
     0
  0
SCALE
  5
1000003F
102
{ACAD_REACTORS
330
1000002E
102
}
330
1000002E
100
AcDbScale
 70
     0
300
100:1
140
100.0
141
1.0
290
     0
  0
SCALE
  5
10000040
102
{ACAD_REACTORS
330
1000002E
102
}
330
1000002E
100
AcDbScale
 70
     0
300
1/128" = 1'-0"
140
0.0078125
141
12.0
290
     0
  0
SCALE
  5
10000041
102
{ACAD_REACTORS
330
1000002E
102
}
330
1000002E
100
AcDbScale
 70
     0
300
1/64" = 1'-0"
140
0.015625
141
12.0
290
     0
  0
SCALE
  5
10000042
102
{ACAD_REACTORS
330
1000002E
102
}
330
1000002E
100
AcDbScale
 70
     0
300
1/32" = 1'-0"
140
0.03125
141
12.0
290
     0
  0
SCALE
  5
10000043
102
{ACAD_REACTORS
330
1000002E
102
}
330
1000002E
100
AcDbScale
 70
     0
300
1/16" = 1'-0"
140
0.0625
141
12.0
290
     0
  0
SCALE
  5
10000044
102
{ACAD_REACTORS
330
1000002E
102
}
330
1000002E
100
AcDbScale
 70
     0
300
3/32" = 1'-0"
140
0.09375
141
12.0
290
     0
  0
SCALE
  5
10000045
102
{ACAD_REACTORS
330
1000002E
102
}
330
1000002E
100
AcDbScale
 70
     0
300
1/8" = 1'-0"
140
0.125
141
12.0
290
     0
  0
SCALE
  5
10000046
102
{ACAD_REACTORS
330
1000002E
102
}
330
1000002E
100
AcDbScale
 70
     0
300
3/16" = 1'-0"
140
0.1875
141
12.0
290
     0
  0
SCALE
  5
10000047
102
{ACAD_REACTORS
330
1000002E
102
}
330
1000002E
100
AcDbScale
 70
     0
300
1/4" = 1'-0"
140
0.25
141
12.0
290
     0
  0
SCALE
  5
10000048
102
{ACAD_REACTORS
330
1000002E
102
}
330
1000002E
100
AcDbScale
 70
     0
300
3/8" = 1'-0"
140
0.375
141
12.0
290
     0
  0
SCALE
  5
10000049
102
{ACAD_REACTORS
330
1000002E
102
}
330
1000002E
100
AcDbScale
 70
     0
300
1/2" = 1'-0"
140
0.5
141
12.0
290
     0
  0
SCALE
  5
1000004A
102
{ACAD_REACTORS
330
1000002E
102
}
330
1000002E
100
AcDbScale
 70
     0
300
3/4" = 1'-0"
140
0.75
141
12.0
290
     0
  0
SCALE
  5
1000004B
102
{ACAD_REACTORS
330
1000002E
102
}
330
1000002E
100
AcDbScale
 70
     0
300
1" = 1'-0"
140
1.0
141
12.0
290
     0
  0
SCALE
  5
1000004C
102
{ACAD_REACTORS
330
1000002E
102
}
330
1000002E
100
AcDbScale
 70
     0
300
1-1/2" = 1'-0"
140
1.5
141
12.0
290
     0
  0
SCALE
  5
1000004D
102
{ACAD_REACTORS
330
1000002E
102
}
330
1000002E
100
AcDbScale
 70
     0
300
3" = 1'-0"
140
3.0
141
12.0
290
     0
  0
SCALE
  5
1000004E
102
{ACAD_REACTORS
330
1000002E
102
}
330
1000002E
100
AcDbScale
 70
     0
300
6" = 1'-0"
140
6.0
141
12.0
290
     0
  0
SCALE
  5
1000004F
102
{ACAD_REACTORS
330
1000002E
102
}
330
1000002E
100
AcDbScale
 70
     0
300
1'-0" = 1'-0"
140
12.0
141
12.0
290
     0
  0
TABLESTYLE
  5
1000002D
102
{ACAD_XDICTIONARY
360
100000B1
102
}
102
{ACAD_REACTORS
330
1000002C
102
}
330
1000002C
100
AcDbTableStyle
  3
Standard
 70
     0
 71
     0
 40
1.5
 41
1.5
280
     0
281
     0
  7
STANDARD
140
4.5
170
     2
 62
     0
 63
     7
283
     0
 90
      512
 91
        0
  1

274
    -2
284
     1
 64
     0
275
    -2
285
     1
 65
     0
276
    -2
286
     1
 66
     0
277
    -2
287
     1
 67
     0
278
    -2
288
     1
 68
     0
279
    -2
289
     1
 69
     0
  7
STANDARD
140
6.0
170
     5
 62
     0
 63
     7
283
     0
 90
      512
 91
        0
  1

274
    -2
284
     1
 64
     0
275
    -2
285
     1
 65
     0
276
    -2
286
     1
 66
     0
277
    -2
287
     1
 67
     0
278
    -2
288
     1
 68
     0
279
    -2
289
     1
 69
     0
  7
STANDARD
140
4.5
170
     5
 62
     0
 63
     7
283
     0
 90
      512
 91
        0
  1

274
    -2
284
     1
 64
     0
275
    -2
285
     1
 65
     0
276
    -2
286
     1
 66
     0
277
    -2
287
     1
 67
     0
278
    -2
288
     1
 68
     0
279
    -2
289
     1
 69
     0
  0
VISUALSTYLE
  5
10000021
102
{ACAD_REACTORS
330
1000001B
102
}
330
1000001B
100
AcDbVisualStyle
  2
2dWireframe
 70
     4
 71
     0
 72
     2
 73
     0
 90
        0
 40
-0.6
 41
-30.0
 62
     5
 63
     7
421
 16777215
 74
     1
 91
        4
 64
     7
 65
   257
 75
     1
175
     1
 42
1.0
 92
        0
 66
   257
 43
1.0
 76
     1
 77
     6
 78
     2
 67
     7
 79
     5
170
     0
171
     0
290
     0
174
     0
 93
        1
 44
0.0
173
     0
291
     0
 45
0.0
  0
VISUALSTYLE
  5
10000023
102
{ACAD_REACTORS
330
1000001B
102
}
330
1000001B
100
AcDbVisualStyle
  2
3D Hidden
 70
     6
 71
     1
 72
     2
 73
     2
 90
        0
 40
-0.6
 41
-30.0
 62
     5
 63
     7
421
 16777215
 74
     2
 91
        2
 64
     7
 65
   257
 75
     2
175
     1
 42
40.0
 92
        0
 66
   257
 43
1.0
 76
     1
 77
     6
 78
     2
 67
     7
 79
     3
170
     0
171
     0
290
     0
174
     0
 93
        1
 44
0.0
173
     0
291
     0
 45
0.0
  0
VISUALSTYLE
  5
10000022
102
{ACAD_REACTORS
330
1000001B
102
}
330
1000001B
100
AcDbVisualStyle
  2
3dWireframe
 70
     5
 71
     0
 72
     2
 73
     0
 90
        0
 40
-0.6
 41
-30.0
 62
     5
 63
     7
421
 16777215
 74
     1
 91
        4
 64
     7
 65
   257
 75
     1
175
     1
 42
1.0
 92
        0
 66
   257
 43
1.0
 76
     1
 77
     6
 78
     2
 67
     7
 79
     5
170
     0
171
     0
290
     0
174
     0
 93
        1
 44
0.0
173
     0
291
     0
 45
0.0
  0
VISUALSTYLE
  5
10000020
102
{ACAD_REACTORS
330
1000001B
102
}
330
1000001B
100
AcDbVisualStyle
  2
Basic
 70
     7
 71
     1
 72
     0
 73
     1
 90
        0
 40
-0.6
 41
-30.0
 62
     5
 63
     7
421
 16777215
 74
     0
 91
        4
 64
     7
 65
   257
 75
     1
175
     1
 42
1.0
 92
        8
 66
     7
 43
1.0
 76
     1
 77
     6
 78
     2
 67
     7
 79
     5
170
     0
171
     0
290
     0
174
     0
 93
        1
 44
0.0
173
     0
291
     1
 45
0.0
  0
VISUALSTYLE
  5
10000027
102
{ACAD_REACTORS
330
1000001B
102
}
330
1000001B
100
AcDbVisualStyle
  2
Brighten
 70
    12
 71
     2
 72
     2
 73
     0
 90
        0
 40
-0.6
 41
-30.0
 62
     5
 63
     7
421
 16777215
 74
     1
 91
        4
 64
     7
 65
   257
 75
     1
175
     1
 42
1.0
 92
        8
 66
     7
 43
1.0
 76
     1
 77
     6
 78
     2
 67
     7
 79
     5
170
     0
171
     0
290
     0
174
     0
 93
        1
 44
50.0
173
     0
291
     1
 45
0.0
  0
VISUALSTYLE
  5
1000002B
102
{ACAD_REACTORS
330
1000001B
102
}
330
1000001B
100
AcDbVisualStyle
  2
ColorChange
 70
    16
 71
     2
 72
     2
 73
     3
 90
        0
 40
-0.6
 41
-30.0
 62
     5
 63
     8
421
  8421504
 74
     1
 91
        4
 64
     7
 65
   257
 75
     1
175
     1
 42
1.0
 92
        8
 66
     8
424
  8421504
 43
1.0
 76
     1
 77
     6
 78
     2
 67
     7
 79
     5
170
     0
171
     0
290
     0
174
     0
 93
        1
 44
0.0
173
     0
291
     1
 45
0.0
  0
VISUALSTYLE
  5
10000024
102
{ACAD_REACTORS
330
1000001B
102
}
330
1000001B
100
AcDbVisualStyle
  2
Conceptual
 70
     9
 71
     3
 72
     2
 73
     0
 90
        0
 40
-0.6
 41
-30.0
 62
     5
 63
     7
421
 16777215
 74
     2
 91
        2
 64
     7
 65
   257
 75
     1
175
     1
 42
40.0
 92
        8
 66
     7
 43
1.0
 76
     1
 77
     6
 78
     2
 67
     7
 79
     3
170
     0
171
     0
290
     0
174
     0
 93
        1
 44
0.0
173
     0
291
     0
 45
0.0
  0
VISUALSTYLE
  5
10000026
102
{ACAD_REACTORS
330
1000001B
102
}
330
1000001B
100
AcDbVisualStyle
  2
Dim
 70
    11
 71
     2
 72
     2
 73
     0
 90
        0
 40
-0.6
 41
-30.0
 62
     5
 63
     7
421
 16777215
 74
     1
 91
        4
 64
     7
 65
   257
 75
     1
175
     1
 42
1.0
 92
        8
 66
     7
 43
1.0
 76
     1
 77
     6
 78
     2
 67
     7
 79
     5
170
     0
171
     0
290
     0
174
     0
 93
        1
 44
-50.0
173
     0
291
     1
 45
0.0
  0
VISUALSTYLE
  5
1000002A
102
{ACAD_REACTORS
330
1000001B
102
}
330
1000001B
100
AcDbVisualStyle
  2
Facepattern
 70
    15
 71
     2
 72
     2
 73
     0
 90
        0
 40
-0.6
 41
-30.0
 62
     5
 63
     7
421
 16777215
 74
     1
 91
        4
 64
     7
 65
   257
 75
     1
175
     1
 42
1.0
 92
        8
 66
     7
 43
1.0
 76
     1
 77
     6
 78
     2
 67
     7
 79
     5
170
     0
171
     0
290
     0
174
     0
 93
        1
 44
0.0
173
     0
291
     1
 45
0.0
  0
VISUALSTYLE
  5
1000001C
102
{ACAD_REACTORS
330
1000001B
102
}
330
1000001B
100
AcDbVisualStyle
  2
Flat
 70
     0
 71
     2
 72
     1
 73
     1
 90
        2
 40
-0.6
 41
30.0
 62
     5
 63
     7
421
 16777215
 74
     0
 91
        4
 64
     7
 65
   257
 75
     1
175
     1
 42
1.0
 92
        8
 66
     7
 43
1.0
 76
     1
 77
     6
 78
     2
 67
     7
 79
     5
170
     0
171
     0
290
     0
174
     0
 93
       13
 44
0.0
173
     0
291
     1
 45
0.0
  0
VISUALSTYLE
  5
1000001D
102
{ACAD_REACTORS
330
1000001B
102
}
330
1000001B
100
AcDbVisualStyle
  2
FlatWithEdges
 70
     1
 71
     2
 72
     1
 73
     1
 90
        2
 40
-0.6
 41
30.0
 62
     5
 63
     7
421
 16777215
 74
     1
 91
        4
 64
     7
 65
   257
 75
     1
175
     1
 42
1.0
 92
        0
 66
   257
 43
1.0
 76
     1
 77
     6
 78
     2
 67
     7
 79
     5
170
     0
171
     0
290
     0
174
     0
 93
       13
 44
0.0
173
     0
291
     1
 45
0.0
  0
VISUALSTYLE
  5
1000001E
102
{ACAD_REACTORS
330
1000001B
102
}
330
1000001B
100
AcDbVisualStyle
  2
Gouraud
 70
     2
 71
     2
 72
     2
 73
     1
 90
        2
 40
-0.6
 41
30.0
 62
     5
 63
     7
421
 16777215
 74
     0
 91
        4
 64
     7
 65
   257
 75
     1
175
     1
 42
1.0
 92
        0
 66
     7
 43
1.0
 76
     1
 77
     6
 78
     2
 67
     7
 79
     5
170
     0
171
     0
290
     0
174
     0
 93
       13
 44
0.0
173
     0
291
     1
 45
0.0
  0
VISUALSTYLE
  5
1000001F
102
{ACAD_REACTORS
330
1000001B
102
}
330
1000001B
100
AcDbVisualStyle
  2
GouraudWithEdges
 70
     3
 71
     2
 72
     2
 73
     1
 90
        2
 40
-0.6
 41
30.0
 62
     5
 63
     7
421
 16777215
 74
     1
 91
        4
 64
     7
 65
   257
 75
     1
175
     1
 42
1.0
 92
        0
 66
   257
 43
1.0
 76
     1
 77
     6
 78
     2
 67
     7
 79
     5
170
     0
171
     0
290
     0
174
     0
 93
       13
 44
0.0
173
     0
291
     1
 45
0.0
  0
VISUALSTYLE
  5
10000029
102
{ACAD_REACTORS
330
1000001B
102
}
330
1000001B
100
AcDbVisualStyle
  2
Linepattern
 70
    14
 71
     2
 72
     2
 73
     0
 90
        0
 40
-0.6
 41
-30.0
 62
     5
 63
     7
421
 16777215
 74
     1
 91
        4
 64
     7
 65
   257
 75
     7
175
     7
 42
1.0
 92
        8
 66
     7
 43
1.0
 76
     1
 77
     6
 78
     2
 67
     7
 79
     5
170
     0
171
     0
290
     0
174
     0
 93
        1
 44
0.0
173
     0
291
     1
 45
0.0
  0
VISUALSTYLE
  5
10000025
102
{ACAD_REACTORS
330
1000001B
102
}
330
1000001B
100
AcDbVisualStyle
  2
Realistic
 70
     8
 71
     2
 72
     2
 73
     0
 90
        0
 40
-0.6
 41
-30.0
 62
     5
 63
     7
421
 16777215
 74
     1
 91
        0
 64
     7
 65
   257
 75
     1
175
     1
 42
1.0
 92
        8
 66
     8
424
  7895160
 43
1.0
 76
     1
 77
     6
 78
     2
 67
     7
 79
     5
170
     0
171
     0
290
     0
174
     0
 93
       13
 44
0.0
173
     0
291
     0
 45
0.0
  0
VISUALSTYLE
  5
10000028
102
{ACAD_REACTORS
330
1000001B
102
}
330
1000001B
100
AcDbVisualStyle
  2
Thicken
 70
    13
 71
     2
 72
     2
 73
     0
 90
        0
 40
-0.6
 41
-30.0
 62
     5
 63
     7
421
 16777215
 74
     1
 91
        4
 64
     7
 65
   257
 75
     1
175
     1
 42
1.0
 92
       12
 66
     7
 43
1.0
 76
     1
 77
     6
 78
     2
 67
     7
 79
     5
170
     0
171
     0
290
     0
174
     0
 93
        1
 44
0.0
173
     0
291
     1
 45
0.0
  0
DICTIONARYVAR
  5
100000A0
102
{ACAD_REACTORS
330
1000009C
102
}
330
1000009C
100
DictionaryVariables
280
     0
  1
1:1
  0
DICTIONARYVAR
  5
1000009E
102
{ACAD_REACTORS
330
1000009C
102
}
330
1000009C
100
DictionaryVariables
280
     0
  1
STANDARD
  0
DICTIONARYVAR
  5
1000009D
102
{ACAD_REACTORS
330
1000009C
102
}
330
1000009C
100
DictionaryVariables
280
     0
  1
STANDARD
  0
DICTIONARYVAR
  5
100000A1
102
{ACAD_REACTORS
330
1000009C
102
}
330
1000009C
100
DictionaryVariables
280
     0
  1
0
  0
DICTIONARYVAR
  5
1000009F
102
{ACAD_REACTORS
330
1000009C
102
}
330
1000009C
100
DictionaryVariables
280
     0
  1
0
  0
DICTIONARY
  5
12A8
330
0
100
AcDbDictionary
280
     1
281
     1
  3
ACAD_XREC_ROUNDTRIP
360
12A9
  0
DICTIONARY
  5
12AA
330
0
100
AcDbDictionary
280
     1
281
     1
  3
ACAD_XREC_ROUNDTRIP
360
12AB
  0
DICTIONARY
  5
12AC
330
0
100
AcDbDictionary
280
     1
281
     1
  3
ACAD_XREC_ROUNDTRIP
360
12AD
  0
DICTIONARY
  5
1000000C
330
1000000B
100
AcDbDictionary
280
     1
281
     1
  3
BUMPTILE
360
1000000E
  3
DIFFUSETILE
360
1000000D
  3
OPACITYTILE
360
10000011
  3
REFLECTIONTILE
360
10000010
  3
REFRACTIONTILE
360
10000012
  3
SPECULARTILE
360
1000000F
  0
DICTIONARY
  5
10000004
330
10000003
100
AcDbDictionary
280
     1
281
     1
  3
BUMPTILE
360
10000006
  3
DIFFUSETILE
360
10000005
  3
OPACITYTILE
360
10000009
  3
REFLECTIONTILE
360
10000008
  3
REFRACTIONTILE
360
1000000A
  3
SPECULARTILE
360
10000007
  0
DICTIONARY
  5
10000014
330
10000013
100
AcDbDictionary
280
     1
281
     1
  3
BUMPTILE
360
10000016
  3
DIFFUSETILE
360
10000015
  3
OPACITYTILE
360
10000019
  3
REFLECTIONTILE
360
10000018
  3
REFRACTIONTILE
360
1000001A
  3
SPECULARTILE
360
10000017
  0
DICTIONARY
  5
100000B1
330
1000002D
100
AcDbDictionary
280
     1
281
     1
  3
ACAD_ROUNDTRIP_2008_TABLESTYLE_CELLSTYLEMAP
360
100000B2
  0
XRECORD
  5
12A9
102
{ACAD_REACTORS
330
12A8
102
}
330
12A8
100
AcDbXrecord
280
     1
102
SHADEPLOT
 70
     0
102
SHADEPLOTRESLEVEL
 70
     2
102
SHADEPLOTCUSTOMDPI
 70
   300
  0
XRECORD
  5
12AB
102
{ACAD_REACTORS
330
12AA
102
}
330
12AA
100
AcDbXrecord
280
     1
102
SHADEPLOT
 70
     0
102
SHADEPLOTRESLEVEL
 70
     2
102
SHADEPLOTCUSTOMDPI
 70
   300
  0
XRECORD
  5
12AD
102
{ACAD_REACTORS
330
12AC
102
}
330
12AC
100
AcDbXrecord
280
     1
102
SHADEPLOT
 70
     0
102
SHADEPLOTRESLEVEL
 70
     2
102
SHADEPLOTCUSTOMDPI
 70
   300
  0
XRECORD
  5
1000000E
102
{ACAD_REACTORS
330
1000000C
102
}
330
1000000C
100
AcDbXrecord
280
     1
270
     1
271
     1
  0
XRECORD
  5
1000000D
102
{ACAD_REACTORS
330
1000000C
102
}
330
1000000C
100
AcDbXrecord
280
     1
270
     1
271
     1
  0
XRECORD
  5
10000011
102
{ACAD_REACTORS
330
1000000C
102
}
330
1000000C
100
AcDbXrecord
280
     1
270
     1
271
     1
  0
XRECORD
  5
10000010
102
{ACAD_REACTORS
330
1000000C
102
}
330
1000000C
100
AcDbXrecord
280
     1
270
     1
271
     1
  0
XRECORD
  5
10000012
102
{ACAD_REACTORS
330
1000000C
102
}
330
1000000C
100
AcDbXrecord
280
     1
270
     1
271
     1
  0
XRECORD
  5
1000000F
102
{ACAD_REACTORS
330
1000000C
102
}
330
1000000C
100
AcDbXrecord
280
     1
270
     1
271
     1
  0
XRECORD
  5
10000006
102
{ACAD_REACTORS
330
10000004
102
}
330
10000004
100
AcDbXrecord
280
     1
270
     1
271
     1
  0
XRECORD
  5
10000005
102
{ACAD_REACTORS
330
10000004
102
}
330
10000004
100
AcDbXrecord
280
     1
270
     1
271
     1
  0
XRECORD
  5
10000009
102
{ACAD_REACTORS
330
10000004
102
}
330
10000004
100
AcDbXrecord
280
     1
270
     1
271
     1
  0
XRECORD
  5
10000008
102
{ACAD_REACTORS
330
10000004
102
}
330
10000004
100
AcDbXrecord
280
     1
270
     1
271
     1
  0
XRECORD
  5
1000000A
102
{ACAD_REACTORS
330
10000004
102
}
330
10000004
100
AcDbXrecord
280
     1
270
     1
271
     1
  0
XRECORD
  5
10000007
102
{ACAD_REACTORS
330
10000004
102
}
330
10000004
100
AcDbXrecord
280
     1
270
     1
271
     1
  0
XRECORD
  5
10000016
102
{ACAD_REACTORS
330
10000014
102
}
330
10000014
100
AcDbXrecord
280
     1
270
     1
271
     1
  0
XRECORD
  5
10000015
102
{ACAD_REACTORS
330
10000014
102
}
330
10000014
100
AcDbXrecord
280
     1
270
     1
271
     1
  0
XRECORD
  5
10000019
102
{ACAD_REACTORS
330
10000014
102
}
330
10000014
100
AcDbXrecord
280
     1
270
     1
271
     1
  0
XRECORD
  5
10000018
102
{ACAD_REACTORS
330
10000014
102
}
330
10000014
100
AcDbXrecord
280
     1
270
     1
271
     1
  0
XRECORD
  5
1000001A
102
{ACAD_REACTORS
330
10000014
102
}
330
10000014
100
AcDbXrecord
280
     1
270
     1
271
     1
  0
XRECORD
  5
10000017
102
{ACAD_REACTORS
330
10000014
102
}
330
10000014
100
AcDbXrecord
280
     1
270
     1
271
     1
  0
CELLSTYLEMAP
  5
100000B2
102
{ACAD_REACTORS
330
100000B1
102
}
330
100000B1
100
AcDbCellStyleMap
 90
        3
300
CELLSTYLE
  1
TABLEFORMAT_BEGIN
 90
        5
170
     1
 91
        0
 92
    32768
 62
   257
 93
        1
300
CONTENTFORMAT
  1
CONTENTFORMAT_BEGIN
 90
        0
 91
        0
 92
      512
 93
        0
300

 40
0.0
140
1.0
 94
        5
 62
     0
340
FC
144
6.0
309
CONTENTFORMAT_END
171
     1
301
MARGIN
  1
CELLMARGIN_BEGIN
 40
1.5
 40
1.5
 40
1.5
 40
1.5
 40
4.5
 40
4.5
309
CELLMARGIN_END
 94
        6
 95
        1
302
GRIDFORMAT
  1
GRIDFORMAT_BEGIN
 90
        0
 91
        1
 62
     0
 92
       -2
340
0
 93
        0
 40
1.125
309
GRIDFORMAT_END
 95
        2
302
GRIDFORMAT
  1
GRIDFORMAT_BEGIN
 90
        0
 91
        1
 62
     0
 92
       -2
340
0
 93
        0
 40
1.125
309
GRIDFORMAT_END
 95
        4
302
GRIDFORMAT
  1
GRIDFORMAT_BEGIN
 90
        0
 91
        1
 62
     0
 92
       -2
340
0
 93
        0
 40
1.125
309
GRIDFORMAT_END
 95
        8
302
GRIDFORMAT
  1
GRIDFORMAT_BEGIN
 90
        0
 91
        1
 62
     0
 92
       -2
340
0
 93
        0
 40
1.125
309
GRIDFORMAT_END
 95
       16
302
GRIDFORMAT
  1
GRIDFORMAT_BEGIN
 90
        0
 91
        1
 62
     0
 92
       -2
340
0
 93
        0
 40
1.125
309
GRIDFORMAT_END
 95
       32
302
GRIDFORMAT
  1
GRIDFORMAT_BEGIN
 90
        0
 91
        1
 62
     0
 92
       -2
340
0
 93
        0
 40
1.125
309
GRIDFORMAT_END
309
TABLEFORMAT_END
  1
CELLSTYLE_BEGIN
 90
        1
 91
        1
300
_TITLE
309
CELLSTYLE_END
300
CELLSTYLE
  1
TABLEFORMAT_BEGIN
 90
        5
170
     1
 91
        0
 92
        0
 62
   257
 93
        1
300
CONTENTFORMAT
  1
CONTENTFORMAT_BEGIN
 90
        0
 91
        0
 92
      512
 93
        0
300

 40
0.0
140
1.0
 94
        5
 62
     0
340
FC
144
4.5
309
CONTENTFORMAT_END
171
     1
301
MARGIN
  1
CELLMARGIN_BEGIN
 40
1.5
 40
1.5
 40
1.5
 40
1.5
 40
4.5
 40
4.5
309
CELLMARGIN_END
 94
        6
 95
        1
302
GRIDFORMAT
  1
GRIDFORMAT_BEGIN
 90
        0
 91
        1
 62
     0
 92
       -2
340
0
 93
        0
 40
1.125
309
GRIDFORMAT_END
 95
        2
302
GRIDFORMAT
  1
GRIDFORMAT_BEGIN
 90
        0
 91
        1
 62
     0
 92
       -2
340
0
 93
        0
 40
1.125
309
GRIDFORMAT_END
 95
        4
302
GRIDFORMAT
  1
GRIDFORMAT_BEGIN
 90
        0
 91
        1
 62
     0
 92
       -2
340
0
 93
        0
 40
1.125
309
GRIDFORMAT_END
 95
        8
302
GRIDFORMAT
  1
GRIDFORMAT_BEGIN
 90
        0
 91
        1
 62
     0
 92
       -2
340
0
 93
        0
 40
1.125
309
GRIDFORMAT_END
 95
       16
302
GRIDFORMAT
  1
GRIDFORMAT_BEGIN
 90
        0
 91
        1
 62
     0
 92
       -2
340
0
 93
        0
 40
1.125
309
GRIDFORMAT_END
 95
       32
302
GRIDFORMAT
  1
GRIDFORMAT_BEGIN
 90
        0
 91
        1
 62
     0
 92
       -2
340
0
 93
        0
 40
1.125
309
GRIDFORMAT_END
309
TABLEFORMAT_END
  1
CELLSTYLE_BEGIN
 90
        2
 91
        1
300
_HEADER
309
CELLSTYLE_END
300
CELLSTYLE
  1
TABLEFORMAT_BEGIN
 90
        5
170
     1
 91
        0
 92
        0
 62
   257
 93
        1
300
CONTENTFORMAT
  1
CONTENTFORMAT_BEGIN
 90
        0
 91
        0
 92
      512
 93
        0
300

 40
0.0
140
1.0
 94
        2
 62
     0
340
FC
144
4.5
309
CONTENTFORMAT_END
171
     1
301
MARGIN
  1
CELLMARGIN_BEGIN
 40
1.5
 40
1.5
 40
1.5
 40
1.5
 40
4.5
 40
4.5
309
CELLMARGIN_END
 94
        6
 95
        1
302
GRIDFORMAT
  1
GRIDFORMAT_BEGIN
 90
        0
 91
        1
 62
     0
 92
       -2
340
0
 93
        0
 40
1.125
309
GRIDFORMAT_END
 95
        2
302
GRIDFORMAT
  1
GRIDFORMAT_BEGIN
 90
        0
 91
        1
 62
     0
 92
       -2
340
0
 93
        0
 40
1.125
309
GRIDFORMAT_END
 95
        4
302
GRIDFORMAT
  1
GRIDFORMAT_BEGIN
 90
        0
 91
        1
 62
     0
 92
       -2
340
0
 93
        0
 40
1.125
309
GRIDFORMAT_END
 95
        8
302
GRIDFORMAT
  1
GRIDFORMAT_BEGIN
 90
        0
 91
        1
 62
     0
 92
       -2
340
0
 93
        0
 40
1.125
309
GRIDFORMAT_END
 95
       16
302
GRIDFORMAT
  1
GRIDFORMAT_BEGIN
 90
        0
 91
        1
 62
     0
 92
       -2
340
0
 93
        0
 40
1.125
309
GRIDFORMAT_END
 95
       32
302
GRIDFORMAT
  1
GRIDFORMAT_BEGIN
 90
        0
 91
        1
 62
     0
 92
       -2
340
0
 93
        0
 40
1.125
309
GRIDFORMAT_END
309
TABLEFORMAT_END
  1
CELLSTYLE_BEGIN
 90
        3
 91
        2
300
_DATA
309
CELLSTYLE_END
  0
ENDSEC
  0
EOF
