  0
SECTION
  2
HEADER
  9
$ACADVER
  1
AC1018
  9
$ACADMAINTVER
 70
     0
  9
$DWGCODEPAGE
  3
ANSI_932
  9
$INSBASE
 10
0.000000
 20
0.000000
 30
0.000000
  9
$EXTMIN
 10
0.000000
 20
0.000000
 30
0.000000
  9
$EXTMAX
 10
157.000000
 20
246.000000
 30
0.000000
  9
$LIMMIN
 10
0.000000
 20
0.000000
  9
$LIMMAX
 10
157.000000
 20
246.000000
  9
$ORTHOMODE
 70
     0
  9
$REGENMODE
 70
     1
  9
$FILLMODE
 70
     1
  9
$QTEXTMODE
 70
     0
  9
$MIRRTEXT
 70
     1
  9
$LTSCALE
 40
1.000000
  9
$ATTMODE
 70
     1
  9
$TEXTSIZE
 40
2.500000
  9
$TRACEWID
 40
1.000000
  9
$TEXTSTYLE
  7
BIGFONT
  9
$CLAYER
  8
0
  9
$CELTYPE
  6
BYLAYER
  9
$CECOLOR
 62
   256
  9
$CELTSCALE
 40
1.000000
  9
$DISPSILH
 70
     0
  9
$DIMSCALE
 40
1.000000
  9
$DIMASZ
 40
2.500000
  9
$DIMEXO
 40
0.625000
  9
$DIMDLI
 40
3.750000
  9
$DIMRND
 40
0.000000
  9
$DIMDLE
 40
0.000000
  9
$DIMEXE
 40
1.250000
  9
$DIMTP
 40
0.000000
  9
$DIMTM
 40
0.000000
  9
$DIMTXT
 40
2.500000
  9
$DIMCEN
 40
2.500000
  9
$DIMTSZ
 40
0.000000
  9
$DIMTOL
 70
     0
  9
$DIMLIM
 70
     0
  9
$DIMTIH
 70
     0
  9
$DIMTOH
 70
     0
  9
$DIMSE1
 70
     0
  9
$DIMSE2
 70
     0
  9
$DIMTAD
 70
     1
  9
$DIMZIN
 70
     8
  9
$DIMBLK
  1

  9
$DIMASO
 70
     1
  9
$DIMSHO
 70
     1
  9
$DIMPOST
  1

  9
$DIMAPOST
  1

  9
$DIMALT
 70
     0
  9
$DIMALTD
 70
     4
  9
$DIMALTF
 40
0.039400
  9
$DIMLFAC
 40
1.000000
  9
$DIMTOFL
 70
     1
  9
$DIMTVP
 40
0.000000
  9
$DIMTIX
 70
     0
  9
$DIMSOXD
 70
     0
  9
$DIMSAH
 70
     0
  9
$DIMBLK1
  1

  9
$DIMBLK2
  1

  9
$DIMSTYLE
  2
STANDARD
  9
$DIMCLRD
 70
     0
  9
$DIMCLRE
 70
     0
  9
$DIMCLRT
 70
     0
  9
$DIMTFAC
 40
1.000000
  9
$DIMGAP
 40
0.625000
  9
$DIMJUST
 70
     0
  9
$DIMSD1
 70
     0
  9
$DIMSD2
 70
     0
  9
$DIMTOLJ
 70
     1
  9
$DIMTZIN
 70
     0
  9
$DIMALTZ
 70
     0
  9
$DIMALTTZ
 70
     0
  9
$DIMUPT
 70
     0
  9
$DIMDEC
 70
     4
  9
$DIMTDEC
 70
     4
  9
$DIMALTU
 70
     8
  9
$DIMALTTD
 70
     4
  9
$DIMTXSTY
  7
STANDARD
  9
$DIMAUNIT
 70
     0
  9
$DIMADEC
 70
     0
  9
$DIMALTRND
 40
0.000000
  9
$DIMAZIN
 70
     0
  9
$DIMDSEP
 70
    46
  9
$DIMATFIT
 70
     3
  9
$DIMFRAC
 70
     0
  9
$DIMLDRBLK
  1

  9
$DIMLUNIT
 70
     2
  9
$DIMLWD
 70
-2
  9
$DIMLWE
 70
-2
  9
$DIMTMOVE
 70
     0
  9
$LUNITS
 70
     2
  9
$LUPREC
 70
     4
  9
$AXISMODE
 70
     0
  9
$SKETCHINC
 40
1.000000
  9
$FILLETRAD
 40
10.000000
  9
$AUNITS
 70
     0
  9
$AUPREC
 70
     0
  9
$MENU
  1
acad
  9
$ELEVATION
 40
0.000000
  9
$PELEVATION
 40
0.000000
  9
$THICKNESS
 40
0.000000
  9
$LIMCHECK
 70
     0
  9
$BLIPMODE
 70
     0
  9
$CHAMFERA
 40
10.000000
  9
$CHAMFERB
 40
10.000000
  9
$CHAMFERC
 40
20.000000
  9
$CHAMFERD
 40
0.000000
  9
$SKPOLY
 70
     0
  9
$TDCREATE
 40
2447851.677998
  9
$TDUCREATE
 40
2447851.677998
  9
$TDUPDATE
 40
2447851.677998
  9
$TDUUPDATE
 40
2447851.677998
  9
$TDINDWG
 40
0.000000
  9
$TDUSRTIMER
 40
0.000000
  9
$USRTIMER
 70
     1
  9
$ANGBASE
 50
0.000000
  9
$ANGDIR
 70
     0
  9
$PDMODE
 70
     0
  9
$PDSIZE
 40
0.000000
  9
$PLINEWID
 40
0.000000
  9
$SPLFRAME
 70
     0
  9
$SPLINETYPE
 70
     6
  9
$SPLINESEGS
 70
     8
  9
$HANDSEED
  5
FFFFFFF
  9
$SURFTAB1
 70
     6
  9
$SURFTAB2
 70
     6
  9
$SURFTYPE
 70
     6
  9
$SURFU
 70
     6
  9
$SURFV
 70
     6
  9
$UCSBASE
  2

  9
$UCSNAME
  2

  9
$UCSORG
 10
0.000000
 20
0.000000
 30
0.000000
  9
$UCSXDIR
 10
1.000000
 20
0.000000
 30
0.000000
  9
$UCSYDIR
 10
0.000000
 20
1.000000
 30
0.000000
  9
$UCSORTHOREF
  2

  9
$UCSORTHOVIEW
 70
     0
  9
$UCSORGTOP
 10
0.000000
 20
0.000000
 30
0.000000
  9
$UCSORGBOTTOM
 10
0.000000
 20
0.000000
 30
0.000000
  9
$UCSORGLEFT
 10
0.000000
 20
0.000000
 30
0.000000
  9
$UCSORGRIGHT
 10
0.000000
 20
0.000000
 30
0.000000
  9
$UCSORGFRONT
 10
0.000000
 20
0.000000
 30
0.000000
  9
$UCSORGBACK
 10
0.000000
 20
0.000000
 30
0.000000
  9
$PUCSBASE
  2

  9
$PUCSNAME
  2

  9
$PUCSORG
 10
0.000000
 20
0.000000
 30
0.000000
  9
$PUCSXDIR
 10
1.000000
 20
0.000000
 30
0.000000
  9
$PUCSYDIR
 10
0.000000
 20
1.000000
 30
0.000000
  9
$PUCSORTHOREF
  2

  9
$PUCSORTHOVIEW
 70
     0
  9
$PUCSORGTOP
 10
0.000000
 20
0.000000
 30
0.000000
  9
$PUCSORGBOTTOM
 10
0.000000
 20
0.000000
 30
0.000000
  9
$PUCSORGLEFT
 10
0.000000
 20
0.000000
 30
0.000000
  9
$PUCSORGRIGHT
 10
0.000000
 20
0.000000
 30
0.000000
  9
$PUCSORGFRONT
 10
0.000000
 20
0.000000
 30
0.000000
  9
$PUCSORGBACK
 10
0.000000
 20
0.000000
 30
0.000000
  9
$USERI1
 70
     0
  9
$USERI2
 70
     0
  9
$USERI3
 70
     0
  9
$USERI4
 70
     0
  9
$USERI5
 70
     0
  9
$USERR1
 40
0.000000
  9
$USERR2
 40
0.000000
  9
$USERR3
 40
0.000000
  9
$USERR4
 40
0.000000
  9
$USERR5
 40
0.000000
  9
$WORLDVIEW
 70
     1
  9
$SHADEDGE
 70
     3
  9
$SHADEDIF
 70
    70
  9
$TILEMODE
 70
     1
  9
$MAXACTVP
 70
    48
  9
$PINSBASE
 10
0.000000
 20
0.000000
 30
0.000000
  9
$PLIMCHECK
 70
     0
  9
$PEXTMIN
 10
100000000000000000000.000000
 20
100000000000000000000.000000
 30
100000000000000000000.000000
  9
$PEXTMAX
 10
-100000000000000000000.000000
 20
-100000000000000000000.000000
 30
-100000000000000000000.000000
  9
$PLIMMIN
 10
0.000000
 20
0.000000
  9
$PLIMMAX
 10
157.000000
 20
246.000000
  9
$UNITMODE
 70
     0
  9
$VISRETAIN
 70
     1
  9
$PLINEGEN
 70
     0
  9
$PSLTSCALE
 70
     1
  9
$TREEDEPTH
 70
  3020
  9
$CMLSTYLE
  2
STANDARD
  9
$CMLJUST
 70
     0
  9
$CMLSCALE
 40
20.000000
  9
$PROXYGRAPHICS
 70
     1
  9
$MEASUREMENT
 70
     1
  9
$CELWEIGHT
370
-1
  9
$ENDCAPS
280
     0
  9
$JOINSTYLE
280
     0
  9
$LWDISPLAY
290
     1
  9
$INSUNITS
 70
     0
  9
$HYPERLINKBASE
  1

  9
$STYLESHEET
  1

  9
$XEDIT
290
     1
  9
$CEPSNTYPE
380
     0
  9
$PSTYLEMODE
290
     1
  9
$FINGERPRINTGUID
  2
{01801163-5BC0-459E-B9C7-2188C09ED432}
  9
$VERSIONGUID
  2
{7F326DDD-95DF-42AD-9861-A0CD9F0961F2}
  9
$EXTNAMES
290
     1
  9
$PSVPSCALE
 40
0.0
  9
$OLESTARTUP
290
     0
  9
$SORTENTS
280
   127
  9
$INDEXCTL
280
     0
  9
$HIDETEXT
280
     1
  9
$XCLIPFRAME
290
     0
  9
$HALOGAP
280
     0
  9
$OBSCOLOR
 70
   257
  9
$OBSLTYPE
280
     0
  9
$INTERSECTIONDISPLAY
280
     0
  9
$INTERSECTIONCOLOR
 70
   257
  9
$DIMASSOC
280
     2
  9
$PROJECTNAME
  1

  0
ENDSEC
  0
SECTION
  2
TABLES
  0
TABLE
  2
VPORT
  5
a2
100
AcDbSymbolTable
 70
     2
  0
VPORT
  5
a5
100
AcDbSymbolTableRecord
100
AcDbViewportTableRecord
  2
*ACTIVE
 70
     0
 10
0.000000
 20
0.000000
 11
1.000000
 21
1.000000
 12
300.000000
 22
200.000000
 13
0.000000
 23
0.000000
 14
10.000000
 24
10.000000
 15
10.000000
 25
10.000000
 16
0.000000
 26
0.000000
 36
1.000000
 17
0.000000
 27
0.000000
 37
0.000000
 40
300.000000
 41
1.600432
 42
50.000000
 43
0.000000
 44
0.000000
 50
0.000000
 51
0.000000
 71
     0
 72
   100
 73
     1
 74
     1
 75
     0
 76
     0
 77
     0
 78
     0
  0
ENDTAB
  0
TABLE
  2
LTYPE
  5
a8
100
AcDbSymbolTable
 70
    11
  0
LTYPE
  5
ab
100
AcDbSymbolTableRecord
100
AcDbLinetypeTableRecord
  2
BYBLOCK
 70
    64
  3
BYBLOCK
 72
    65
 73
     0
 40
0.000000
  0
LTYPE
  5
ae
100
AcDbSymbolTableRecord
100
AcDbLinetypeTableRecord
  2
BYLAYER
 70
    64
  3
BYLAYER
 72
    65
 73
     0
 40
0.000000
  0
LTYPE
  5
b1
100
AcDbSymbolTableRecord
100
AcDbLinetypeTableRecord
  2
CONTINUOUS
 70
    64
  3
実線
 72
    65
 73
     0
 40
0.000000
  0
LTYPE
  5
b4
100
AcDbSymbolTableRecord
100
AcDbLinetypeTableRecord
  2
DASHED
 70
    64
  3
__ __ __ __ __ __ __ __ __ __ __ __ __ __ __
 72
    65
 73
     2
 40
0.750000
 49
0.500000
 74
     0
 49
-0.250000
 74
     0
  0
LTYPE
  5
b7
100
AcDbSymbolTableRecord
100
AcDbLinetypeTableRecord
  2
HIDDEN
 70
    64
  3
_ _ _ _ _ _ _ _ _ _ _ _ _ _ _ _ _ _ _ _ _ _ _
 72
    65
 73
     2
 40
0.375000
 49
0.250000
 74
     0
 49
-0.125000
 74
     0
  0
LTYPE
  5
ba
100
AcDbSymbolTableRecord
100
AcDbLinetypeTableRecord
  2
CENTER
 70
    64
  3
____ _ ____ _ ____ _ ____ _ ____ _ ____ _ ____
 72
    65
 73
     4
 40
2.000000
 49
1.250000
 74
     0
 49
-0.250000
 74
     0
 49
0.250000
 74
     0
 49
-0.250000
 74
     0
  0
LTYPE
  5
bd
100
AcDbSymbolTableRecord
100
AcDbLinetypeTableRecord
  2
PHANTOM
 70
    64
  3
_____ _ _ _____ _ _ _____ _ _ _____ _ _ ____
 72
    65
 73
     6
 40
2.500000
 49
1.250000
 74
     0
 49
-0.250000
 74
     0
 49
0.250000
 74
     0
 49
-0.250000
 74
     0
 49
0.250000
 74
     0
 49
-0.250000
 74
     0
  0
LTYPE
  5
c0
100
AcDbSymbolTableRecord
100
AcDbLinetypeTableRecord
  2
DOT
 70
    64
  3
...............................................
 72
    65
 73
     2
 40
0.250000
 49
0.000000
 74
     0
 49
-0.250000
 74
     0
  0
LTYPE
  5
c3
100
AcDbSymbolTableRecord
100
AcDbLinetypeTableRecord
  2
DASHDOT
 70
    64
  3
__ . __ . __ . __ . __ . __ . __ . __ . __ . __
 72
    65
 73
     4
 40
1.000000
 49
0.500000
 74
     0
 49
-0.250000
 74
     0
 49
0.000000
 74
     0
 49
-0.250000
 74
     0
  0
LTYPE
  5
c6
100
AcDbSymbolTableRecord
100
AcDbLinetypeTableRecord
  2
BORDER
 70
    64
  3
__ __ . __ __ . __ __ . __ __ . __ __ . __ __
 72
    65
 73
     6
 40
1.750000
 49
0.500000
 74
     0
 49
-0.250000
 74
     0
 49
0.500000
 74
     0
 49
-0.250000
 74
     0
 49
0.000000
 74
     0
 49
-0.250000
 74
     0
  0
LTYPE
  5
c9
100
AcDbSymbolTableRecord
100
AcDbLinetypeTableRecord
  2
DIVIDE
 70
    64
  3
__ . . __ . . __ . . __ . . __ . . __ . . __
 72
    65
 73
     6
 40
1.250000
 49
0.500000
 74
     0
 49
-0.250000
 74
     0
 49
0.000000
 74
     0
 49
-0.250000
 74
     0
 49
0.000000
 74
     0
 49
-0.250000
 74
     0
  0
ENDTAB
  0
TABLE
  2
LAYER
  5
cc
100
AcDbSymbolTable
 70
     2
  0
LAYER
  5
cf
100
AcDbSymbolTableRecord
100
AcDbLayerTableRecord
  2
0
 70
     0
 62
     7
  6
CONTINUOUS
370
 65533
390
	F
  0
LAYER
  5
d2
100
AcDbSymbolTableRecord
100
AcDbLayerTableRecord
  2
B
 70
     0
 62
     7
  6
CONTINUOUS
370
 65533
390
	F
  0
LAYER
  5
d5
100
AcDbSymbolTableRecord
100
AcDbLayerTableRecord
  2
C
 70
     0
 62
     7
  6
CONTINUOUS
370
 65533
390
	F
  0
LAYER
  5
d8
100
AcDbSymbolTableRecord
100
AcDbLayerTableRecord
  2
D
 70
     0
 62
     7
  6
CONTINUOUS
370
 65533
390
	F
  0
LAYER
  5
db
100
AcDbSymbolTableRecord
100
AcDbLayerTableRecord
  2
E
 70
     0
 62
     7
  6
CONTINUOUS
370
 65533
390
	F
  0
LAYER
  5
de
100
AcDbSymbolTableRecord
100
AcDbLayerTableRecord
  2
F
 70
     0
 62
     7
  6
CONTINUOUS
370
 65533
390
	F
  0
LAYER
  5
e1
100
AcDbSymbolTableRecord
100
AcDbLayerTableRecord
  2
G
 70
     0
 62
     7
  6
CONTINUOUS
370
 65533
390
	F
  0
LAYER
  5
e4
100
AcDbSymbolTableRecord
100
AcDbLayerTableRecord
  2
H
 70
     0
 62
     7
  6
CONTINUOUS
370
 65533
390
	F
  0
LAYER
  5
e7
100
AcDbSymbolTableRecord
100
AcDbLayerTableRecord
  2
I
 70
     0
 62
     7
  6
CONTINUOUS
370
 65533
390
	F
  0
LAYER
  5
ea
100
AcDbSymbolTableRecord
100
AcDbLayerTableRecord
  2
J
 70
     0
 62
     7
  6
CONTINUOUS
370
 65533
390
	F
  0
LAYER
  5
ed
100
AcDbSymbolTableRecord
100
AcDbLayerTableRecord
  2
K
 70
     0
 62
     7
  6
CONTINUOUS
370
 65533
390
	F
  0
LAYER
  5
f0
100
AcDbSymbolTableRecord
100
AcDbLayerTableRecord
  2
L
 70
     0
 62
     7
  6
CONTINUOUS
370
 65533
390
	F
  0
LAYER
  5
f3
100
AcDbSymbolTableRecord
100
AcDbLayerTableRecord
  2
M
 70
     0
 62
     7
  6
CONTINUOUS
370
 65533
390
	F
  0
LAYER
  5
f6
100
AcDbSymbolTableRecord
100
AcDbLayerTableRecord
  2
N
 70
     0
 62
     7
  6
CONTINUOUS
370
 65533
390
	F
  0
ENDTAB
  0
TABLE
  2
STYLE
  5
f9
100
AcDbSymbolTable
 70
     2
  0
STYLE
  5
fc
100
AcDbSymbolTableRecord
100
AcDbTextStyleTableRecord
  2
STANDARD
 70
     0
 40
0.000000
 41
0.500000
 50
0.000000
 71
     0
 42
0.300000
  3
txt
  4

  0
STYLE
  5
ff
100
AcDbSymbolTableRecord
100
AcDbTextStyleTableRecord
  2
BIGFONT
 70
    64
 40
0.000000
 41
1.000000
 50
0.000000
 71
     0
 42
0.200000
  3

  4
bigfont
  0
ENDTAB
  0
TABLE
  2
VIEW
  5
102
100
AcDbSymbolTable
 70
     0
  0
ENDTAB
  0
TABLE
  2
UCS
  5
105
100
AcDbSymbolTable
 70
     0
  0
ENDTAB
  0
TABLE
  2
APPID
  5
108
100
AcDbSymbolTable
 70
     3
  0
APPID
  5
10b
100
AcDbSymbolTableRecord
100
AcDbRegAppTableRecord
  2
ACAD
 70
     0
  0
APPID
  5
10e
100
AcDbSymbolTableRecord
100
AcDbRegAppTableRecord
  2
CONTENTTABDATA
 70
     0
  0
APPID
  5
111
100
AcDbSymbolTableRecord
100
AcDbRegAppTableRecord
  2
CONTENTCURRENTTAB
 70
     0
  0
ENDTAB
  0
TABLE
  2
DIMSTYLE
  5
114
330
     0
100
AcDbSymbolTable
 70
     2
100
AcDbDimStyleTable
 70
     1
  0
DIMSTYLE
105
117
100
AcDbSymbolTableRecord
100
AcDbDimStyleTableRecord
  2
STANDARD
 70
     0
  3

  4

  5

  6

  7

 40
1.000000
 41
0.180000
 42
0.062500
 43
0.380000
 44
0.180000
 45
0.000000
 46
0.000000
 47
0.000000
 48
0.000000
140
0.180000
141
0.090000
142
0.000000
143
25.400000
144
1.000000
145
0.000000
146
1.000000
147
0.090000
 71
     0
 72
     0
 73
     1
 74
     1
 75
     0
 76
     0
 77
     0
 78
     0
170
     0
171
     2
172
     0
173
     0
174
     0
175
     0
176
     0
177
     0
178
     0
270
     2
271
     4
272
     4
273
     2
274
     2
340
fc
275
     0
280
     0
281
     0
282
     0
283
     1
284
     0
285
     0
286
     0
287
     3
288
     0
  0
ENDTAB
  0
TABLE
  2
BLOCK_RECORD
  5
11a
100
AcDbSymbolTable
 70
     0
  0
BLOCK_RECORD
  5
11d
100
AcDbSymbolTableRecord
100
AcDbBlockTableRecord
  2
*MODEL_SPACE
  0
BLOCK_RECORD
  5
120
100
AcDbSymbolTableRecord
100
AcDbBlockTableRecord
  2
*PAPER_SPACE
  0
ENDTAB
  0
ENDSEC
  0
SECTION
  2
BLOCKS
  0
BLOCK
  5
123
330
124
100
AcDbEntity
  8
0
100
AcDbBlockBegin
  2
*Model_Space
 70
     0
 10
0.000000
 20
0.000000
 30
0.000000
  3
*Model_Space
  1
 
  0
ENDBLK
  5
126
330
124
100
AcDbEntity
  8
0
100
AcDbBlockEnd
  0
BLOCK
  5
129
330
12a
100
AcDbEntity
 67
     1
  8
0
100
AcDbBlockBegin
  2
*Paper_Space
 70
     0
 10
0.000000
 20
0.000000
 30
0.000000
  3
*Paper_Space
  1
 
  0
ENDBLK
  5
12c
330
12d
100
AcDbEntity
 67
     1
  8
0
100
AcDbBlockEnd
  0
ENDSEC
  0
SECTION
  2
ENTITIES
  0
LINE
  5
12f
100
AcDbEntity
  8
0
370
    20
100
AcDbLine
 10
46.250000
 20
170.425000
 11
8.850000
 21
170.425000
  0
LINE
  5
132
100
AcDbEntity
  8
0
370
    20
100
AcDbLine
 10
53.900000
 20
170.425000
 11
78.850000
 21
170.425000
  0
LINE
  5
135
100
AcDbEntity
  8
0
370
    20
100
AcDbLine
 10
67.200000
 20
170.250000
 11
64.975000
 21
166.925000
  0
LINE
  5
138
100
AcDbEntity
  8
0
370
    20
100
AcDbLine
 10
68.875000
 20
170.250000
 11
66.650000
 21
166.925000
  0
LINE
  5
13b
100
AcDbEntity
  8
0
370
    20
100
AcDbLine
 10
70.550000
 20
170.250000
 11
68.325000
 21
166.925000
  0
LINE
  5
13e
100
AcDbEntity
  8
0
370
    20
100
AcDbLine
 10
65.225000
 20
170.375000
 11
66.250000
 21
168.825000
  0
LINE
  5
141
100
AcDbEntity
  8
0
370
    20
100
AcDbLine
 10
63.550000
 20
170.375000
 11
65.400000
 21
167.575000
  0
LINE
  5
144
100
AcDbEntity
  8
0
370
    20
100
AcDbLine
 10
61.875000
 20
170.375000
 11
64.125000
 21
166.925000
  0
LINE
  5
147
100
AcDbEntity
  8
0
370
    20
100
AcDbLine
 10
68.975000
 20
167.875000
 11
69.700000
 21
166.925000
  0
LINE
  5
14a
100
AcDbEntity
  8
0
370
    20
100
AcDbLine
 10
69.700000
 20
169.025000
 11
71.300000
 21
166.925000
  0
LINE
  5
14d
100
AcDbEntity
  8
0
370
    20
100
AcDbLine
 10
70.425000
 20
170.175000
 11
72.900000
 21
166.925000
  0
LINE
  5
150
100
AcDbEntity
  8
0
370
    20
100
AcDbLine
 10
19.375000
 20
170.150000
 11
17.275000
 21
167.025000
  0
LINE
  5
153
100
AcDbEntity
  8
0
370
    20
100
AcDbLine
 10
21.050000
 20
170.150000
 11
18.950000
 21
167.025000
  0
LINE
  5
156
100
AcDbEntity
  8
0
370
    20
100
AcDbLine
 10
22.725000
 20
170.150000
 11
20.625000
 21
167.025000
  0
LINE
  5
159
100
AcDbEntity
  8
0
370
    20
100
AcDbLine
 10
17.400000
 20
170.275000
 11
18.425000
 21
168.725000
  0
LINE
  5
15c
100
AcDbEntity
  8
0
370
    20
100
AcDbLine
 10
15.725000
 20
170.275000
 11
17.575000
 21
167.475000
  0
LINE
  5
15f
100
AcDbEntity
  8
0
370
    20
100
AcDbLine
 10
14.050000
 20
170.275000
 11
16.175000
 21
167.025000
  0
LINE
  5
162
100
AcDbEntity
  8
0
370
    20
100
AcDbLine
 10
28.475000
 20
170.150000
 11
26.375000
 21
167.025000
  0
LINE
  5
165
100
AcDbEntity
  8
0
370
    20
100
AcDbLine
 10
30.150000
 20
170.150000
 11
28.050000
 21
167.025000
  0
LINE
  5
168
100
AcDbEntity
  8
0
370
    20
100
AcDbLine
 10
31.825000
 20
170.150000
 11
29.725000
 21
167.025000
  0
LINE
  5
16b
100
AcDbEntity
  8
0
370
    20
100
AcDbLine
 10
26.500000
 20
170.275000
 11
27.525000
 21
168.725000
  0
LINE
  5
16e
100
AcDbEntity
  8
0
370
    20
100
AcDbLine
 10
24.825000
 20
170.275000
 11
26.675000
 21
167.475000
  0
LINE
  5
171
100
AcDbEntity
  8
0
370
    20
100
AcDbLine
 10
23.150000
 20
170.275000
 11
25.275000
 21
167.025000
  0
LINE
  5
174
100
AcDbEntity
  8
0
370
    20
100
AcDbLine
 10
22.350000
 20
169.025000
 11
23.650000
 21
167.025000
  0
LINE
  5
177
100
AcDbEntity
  8
0
370
    20
100
AcDbLine
 10
21.550000
 20
167.775000
 11
22.025000
 21
167.025000
  0
LINE
  5
17a
100
AcDbEntity
  8
0
370
    20
100
AcDbLine
 10
52.650000
 20
91.400000
 11
52.650000
 21
210.125000
  0
LINE
  5
17d
100
AcDbEntity
  8
0
370
    20
100
AcDbLine
 10
47.350000
 20
60.725000
 11
52.750000
 21
60.725000
  0
HATCH
  5
180
330
F6
100
AcDbEntity
  8
0
100
AcDbHatch
 10
0.0
 20
0.0
 30
0.0
210
0.0
220
0.0
230
1.0
  2
SOLID
 70
     1
 71
     0
 91
     1
 92
     7
 72
     0
 73
     1
 93
     4
 10
55.775000
 20
168.500000
 10
55.775000
 20
60.675000
 10
53.900000
 20
60.675000
 10
53.900000
 20
168.500000
 97
     1
330
183
 75
     0
 76
     1
 47
0.651316
 98
     1
 10
0.0
 20
0.0
  0
LWPOLYLINE
  5
183
330
F6
100
AcDbEntity
  8
0
100
AcDbPolyline
 90
     4
 70
     1
 43
0.200000
 10
55.775000
 20
168.500000
 10
55.775000
 20
60.675000
 10
53.900000
 20
60.675000
 10
53.900000
 20
168.500000
  0
HATCH
  5
18e
330
F6
100
AcDbEntity
  8
0
100
AcDbHatch
 10
0.0
 20
0.0
 30
0.0
210
0.0
220
0.0
230
1.0
  2
SOLID
 70
     1
 71
     0
 91
     1
 92
     7
 72
     0
 73
     1
 93
     4
 10
44.525000
 20
168.500000
 10
46.075000
 20
168.500000
 10
46.075000
 20
60.675000
 10
44.525000
 20
60.675000
 97
     1
330
191
 75
     0
 76
     1
 47
0.651316
 98
     1
 10
0.0
 20
0.0
  0
LWPOLYLINE
  5
191
330
F6
100
AcDbEntity
  8
0
100
AcDbPolyline
 90
     4
 70
     1
 43
0.200000
 10
44.525000
 20
168.500000
 10
46.075000
 20
168.500000
 10
46.075000
 20
60.675000
 10
44.525000
 20
60.675000
  0
HATCH
  5
19c
330
F6
100
AcDbEntity
  8
0
100
AcDbHatch
 10
0.0
 20
0.0
 30
0.0
210
0.0
220
0.0
230
1.0
  2
SOLID
 70
     1
 71
     0
 91
     1
 92
     7
 72
     0
 73
     1
 93
     4
 10
113.325000
 20
153.600000
 10
113.325000
 20
161.150000
 10
114.700000
 20
161.150000
 10
114.700000
 20
153.600000
 97
     1
330
19f
 75
     0
 76
     1
 47
0.651316
 98
     1
 10
0.0
 20
0.0
  0
LWPOLYLINE
  5
19f
330
F6
100
AcDbEntity
  8
0
100
AcDbPolyline
 90
     4
 70
     1
 43
0.200000
 10
113.325000
 20
153.600000
 10
113.325000
 20
161.150000
 10
114.700000
 20
161.150000
 10
114.700000
 20
153.600000
  0
LINE
  5
1aa
100
AcDbEntity
  8
0
370
    20
100
AcDbLine
 10
114.700000
 20
153.575000
 11
114.700000
 21
161.150000
  0
LINE
  5
1ad
100
AcDbEntity
  8
0
370
    20
100
AcDbLine
 10
115.950000
 20
177.925000
 11
115.950000
 21
173.900000
  0
LINE
  5
1b0
100
AcDbEntity
  8
0
370
    20
100
AcDbLine
 10
115.950000
 20
171.075000
 11
115.950000
 21
173.025000
  0
LINE
  5
1b3
100
AcDbEntity
  8
0
370
    20
100
AcDbLine
 10
115.950000
 20
153.900000
 11
115.950000
 21
164.600000
  0
LINE
  5
1b6
100
AcDbEntity
  8
0
370
    20
100
AcDbLine
 10
115.950000
 20
183.500000
 11
115.950000
 21
177.925000
  0
LINE
  5
1b9
100
AcDbEntity
  8
0
370
    20
100
AcDbLine
 10
115.950000
 20
177.900000
 11
107.200000
 21
177.900000
  0
LINE
  5
1bc
100
AcDbEntity
  8
0
370
    20
100
AcDbLine
 10
107.200000
 20
177.900000
 11
105.475000
 21
177.900000
  0
LINE
  5
1bf
100
AcDbEntity
  8
0
370
    20
100
AcDbLine
 10
105.475000
 20
183.800000
 11
105.475000
 21
177.900000
  0
LINE
  5
1c2
100
AcDbEntity
  8
0
370
    20
100
AcDbLine
 10
105.475000
 20
177.900000
 11
105.475000
 21
173.900000
  0
LINE
  5
1c5
100
AcDbEntity
  8
0
370
    20
100
AcDbLine
 10
105.475000
 20
172.650000
 11
105.475000
 21
173.025000
  0
LINE
  5
1c8
100
AcDbEntity
  8
0
370
    20
100
AcDbLine
 10
105.475000
 20
153.900000
 11
105.475000
 21
167.475000
  0
LINE
  5
1cb
100
AcDbEntity
  8
0
370
    20
100
AcDbLine
 10
119.525000
 20
173.425000
 11
101.100000
 21
173.425000
  0
LINE
  5
1ce
100
AcDbEntity
  8
0
370
    20
100
AcDbLine
 10
101.075000
 20
173.425000
 11
101.075000
 21
57.175000
  0
LINE
  5
1d1
100
AcDbEntity
  8
0
370
    20
100
AcDbLine
 10
119.500000
 20
57.175000
 11
101.075000
 21
57.175000
  0
LINE
  5
1d4
100
AcDbEntity
  8
0
370
    20
100
AcDbLine
 10
52.250000
 20
91.400000
 11
52.250000
 21
210.125000
  0
HATCH
  5
1d7
330
F6
100
AcDbEntity
  8
0
100
AcDbHatch
 10
0.0
 20
0.0
 30
0.0
210
0.0
220
0.0
230
1.0
  2
SOLID
 70
     1
 71
     0
 91
     1
 92
     7
 72
     0
 73
     1
 93
    19
 10
59.300000
 20
216.775000
 10
59.300000
 20
217.200000
 10
59.250000
 20
217.200000
 10
57.875000
 20
217.050000
 10
56.550000
 20
216.650000
 10
55.325000
 20
215.975000
 10
54.250000
 20
215.100000
 10
53.400000
 20
214.000000
 10
52.750000
 20
212.775000
 10
52.350000
 20
211.450000
 10
52.250000
 20
210.150000
 10
52.650000
 20
210.175000
 10
52.775000
 20
211.450000
 10
53.150000
 20
212.700000
 10
53.775000
 20
213.850000
 10
54.625000
 20
214.850000
 10
55.625000
 20
215.675000
 10
56.775000
 20
216.275000
 10
58.025000
 20
216.650000
 97
     1
330
1da
 75
     0
 76
     1
 47
0.651316
 98
     1
 10
0.0
 20
0.0
  0
LWPOLYLINE
  5
1da
330
F6
100
AcDbEntity
  8
0
100
AcDbPolyline
 90
    20
 70
     0
 43
0.200000
 10
59.300000
 20
216.775000
 10
59.300000
 20
217.200000
 10
59.250000
 20
217.200000
 10
57.875000
 20
217.050000
 10
56.550000
 20
216.650000
 10
55.325000
 20
215.975000
 10
54.250000
 20
215.100000
 10
53.400000
 20
214.000000
 10
52.750000
 20
212.775000
 10
52.350000
 20
211.450000
 10
52.250000
 20
210.150000
 10
52.650000
 20
210.175000
 10
52.775000
 20
211.450000
 10
53.150000
 20
212.700000
 10
53.775000
 20
213.850000
 10
54.625000
 20
214.850000
 10
55.625000
 20
215.675000
 10
56.775000
 20
216.275000
 10
58.025000
 20
216.650000
 10
59.300000
 20
216.775000
  0
ARC
  5
205
100
AcDbEntity
  8
0
370
    20
100
AcDbCircle
 10
59.325000
 20
210.125000
 40
7.075000
100
AcDbArc
 50
90.000000
 51
180.562500
  0
ARC
  5
208
100
AcDbEntity
  8
0
370
    20
100
AcDbCircle
 10
59.300000
 20
210.100000
 40
6.650000
100
AcDbArc
 50
90.000000
 51
179.625000
  0
LINE
  5
20b
100
AcDbEntity
  8
0
370
    20
100
AcDbLine
 10
113.325000
 20
153.575000
 11
113.325000
 21
161.150000
  0
HATCH
  5
20e
330
F6
100
AcDbEntity
  8
0
100
AcDbHatch
 10
0.0
 20
0.0
 30
0.0
210
0.0
220
0.0
230
1.0
  2
SOLID
 70
     1
 71
     0
 91
     1
 92
     7
 72
     0
 73
     1
 93
     4
 10
52.250000
 20
210.125000
 10
52.650000
 20
210.150000
 10
52.650000
 20
91.525000
 10
52.300000
 20
91.525000
 97
     1
330
211
 75
     0
 76
     1
 47
0.651316
 98
     1
 10
0.0
 20
0.0
  0
LWPOLYLINE
  5
211
330
F6
100
AcDbEntity
  8
0
100
AcDbPolyline
 90
     4
 70
     1
 43
0.200000
 10
52.250000
 20
210.125000
 10
52.650000
 20
210.150000
 10
52.650000
 20
91.525000
 10
52.300000
 20
91.525000
  0
ELLIPSE
  5
21c
100
AcDbEntity
  8
0
370
    20
100
AcDbEllipse
 10
110.300000
 20
116.500000
 30
0.000000
 11
0.0000000000000
 21
68.875000
 31
0.000000
210
0.000000
220
0.000000
230
1.000000
 40
0.367695
 41
0.000000
 42
6.283185
  0
HATCH
  5
21f
330
F6
100
AcDbEntity
  8
0
100
AcDbHatch
 10
0.0
 20
0.0
 30
0.0
210
0.0
220
0.0
230
1.0
  2
SOLID
 70
     1
 71
     0
 91
     1
 92
     7
 72
     0
 73
     1
 93
     8
 10
94.100000
 20
169.450000
 10
95.750000
 20
173.025000
 10
97.550000
 20
175.950000
 10
98.725000
 20
177.825000
 10
98.725000
 20
55.125000
 10
96.850000
 20
57.700000
 10
95.300000
 20
60.525000
 10
94.125000
 20
63.225000
 97
     1
330
222
 75
     0
 76
     1
 47
0.651316
 98
     1
 10
0.0
 20
0.0
  0
LWPOLYLINE
  5
222
330
F6
100
AcDbEntity
  8
0
100
AcDbPolyline
 90
     8
 70
     1
 43
0.200000
 10
94.100000
 20
169.450000
 10
95.750000
 20
173.025000
 10
97.550000
 20
175.950000
 10
98.725000
 20
177.825000
 10
98.725000
 20
55.125000
 10
96.850000
 20
57.700000
 10
95.300000
 20
60.525000
 10
94.125000
 20
63.225000
  0
HATCH
  5
235
330
F6
100
AcDbEntity
  8
0
100
AcDbHatch
 10
0.0
 20
0.0
 30
0.0
210
0.0
220
0.0
230
1.0
  2
SOLID
 70
     1
 71
     0
 91
     1
 92
     7
 72
     0
 73
     1
 93
     8
 10
121.375000
 20
178.525000
 10
124.425000
 20
174.175000
 10
126.225000
 20
170.100000
 10
126.850000
 20
168.775000
 10
126.850000
 20
64.150000
 10
124.900000
 20
60.150000
 10
123.025000
 20
56.775000
 10
121.375000
 20
54.300000
 97
     1
330
238
 75
     0
 76
     1
 47
0.651316
 98
     1
 10
0.0
 20
0.0
  0
LWPOLYLINE
  5
238
330
F6
100
AcDbEntity
  8
0
100
AcDbPolyline
 90
     8
 70
     1
 43
0.200000
 10
121.375000
 20
178.525000
 10
124.425000
 20
174.175000
 10
126.225000
 20
170.100000
 10
126.850000
 20
168.775000
 10
126.850000
 20
64.150000
 10
124.900000
 20
60.150000
 10
123.025000
 20
56.775000
 10
121.375000
 20
54.300000
  0
LINE
  5
24b
100
AcDbEntity
  8
0
370
    20
100
AcDbLine
 10
85.075000
 20
220.975000
 11
112.050000
 21
220.975000
  0
LINE
  5
24e
100
AcDbEntity
  8
0
370
    20
100
AcDbLine
 10
112.425000
 20
220.825000
 11
113.100000
 21
220.150000
  0
LINE
  5
251
100
AcDbEntity
  8
0
370
    20
100
AcDbLine
 10
113.275000
 20
219.750000
 11
113.275000
 21
196.325000
  0
LINE
  5
254
100
AcDbEntity
  8
0
370
    20
100
AcDbLine
 10
113.100000
 20
195.950000
 11
112.375000
 21
195.225000
  0
LINE
  5
257
100
AcDbEntity
  8
0
370
    20
100
AcDbLine
 10
112.000000
 20
195.050000
 11
85.125000
 21
195.050000
  0
LINE
  5
25a
100
AcDbEntity
  8
0
370
    20
100
AcDbLine
 10
84.725000
 20
195.225000
 11
84.050000
 21
195.900000
  0
LINE
  5
25d
100
AcDbEntity
  8
0
370
    20
100
AcDbLine
 10
83.900000
 20
196.275000
 11
83.900000
 21
219.800000
  0
LINE
  5
260
100
AcDbEntity
  8
0
370
    20
100
AcDbLine
 10
84.050000
 20
220.200000
 11
84.675000
 21
220.825000
  0
ARC
  5
263
100
AcDbEntity
  8
0
370
    20
100
AcDbCircle
 10
112.000000
 20
220.375000
 40
0.600000
100
AcDbArc
 50
45.437500
 51
90.000000
  0
ARC
  5
266
100
AcDbEntity
  8
0
370
    20
100
AcDbCircle
 10
112.675000
 20
219.725000
 40
0.575000
100
AcDbArc
 50
360.000000
 51
45.437500
  0
ARC
  5
269
100
AcDbEntity
  8
0
370
    20
100
AcDbCircle
 10
112.650000
 20
196.375000
 40
0.600000
100
AcDbArc
 50
315.375000
 51
360.000000
  0
ARC
  5
26c
100
AcDbEntity
  8
0
370
    20
100
AcDbCircle
 10
111.975000
 20
195.650000
 40
0.575000
100
AcDbArc
 50
270.000000
 51
315.375000
  0
ARC
  5
26f
100
AcDbEntity
  8
0
370
    20
100
AcDbCircle
 10
85.150000
 20
195.675000
 40
0.600000
100
AcDbArc
 50
225.437500
 51
270.000000
  0
ARC
  5
272
100
AcDbEntity
  8
0
370
    20
100
AcDbCircle
 10
84.475000
 20
196.325000
 40
0.575000
100
AcDbArc
 50
180.000000
 51
225.437500
  0
ARC
  5
275
100
AcDbEntity
  8
0
370
    20
100
AcDbCircle
 10
84.475000
 20
219.800000
 40
0.575000
100
AcDbArc
 50
134.687500
 51
180.000000
  0
ARC
  5
278
100
AcDbEntity
  8
0
370
    20
100
AcDbCircle
 10
85.100000
 20
220.375000
 40
0.600000
100
AcDbArc
 50
90.000000
 51
134.687500
  0
LINE
  5
27b
100
AcDbEntity
  8
0
370
    20
100
AcDbLine
 10
85.675000
 20
220.450000
 11
111.525000
 21
220.450000
  0
LINE
  5
27e
100
AcDbEntity
  8
0
370
    20
100
AcDbLine
 10
111.900000
 20
220.325000
 11
112.550000
 21
219.675000
  0
LINE
  5
281
100
AcDbEntity
  8
0
370
    20
100
AcDbLine
 10
112.725000
 20
219.275000
 11
112.725000
 21
196.775000
  0
LINE
  5
284
100
AcDbEntity
  8
0
370
    20
100
AcDbLine
 10
112.550000
 20
196.425000
 11
111.875000
 21
195.750000
  0
LINE
  5
287
100
AcDbEntity
  8
0
370
    20
100
AcDbLine
 10
111.525000
 20
195.575000
 11
85.700000
 21
195.575000
  0
LINE
  5
28a
100
AcDbEntity
  8
0
370
    20
100
AcDbLine
 10
85.300000
 20
195.750000
 11
84.650000
 21
196.400000
  0
LINE
  5
28d
100
AcDbEntity
  8
0
370
    20
100
AcDbLine
 10
84.525000
 20
196.750000
 11
84.525000
 21
219.300000
  0
LINE
  5
290
100
AcDbEntity
  8
0
370
    20
100
AcDbLine
 10
84.650000
 20
219.700000
 11
85.275000
 21
220.325000
  0
ARC
  5
293
100
AcDbEntity
  8
0
370
    20
100
AcDbCircle
 10
111.500000
 20
219.875000
 40
0.575000
100
AcDbArc
 50
45.437500
 51
90.000000
  0
ELLIPSE
  5
296
100
AcDbEntity
  8
0
370
    20
100
AcDbEllipse
 10
112.125000
 20
219.250000
 30
0.000000
 11
0.575000
 21
-0.000000000000000
 31
0.000000
210
0.000000
220
0.000000
230
1.000000
 40
0.956522
 41
0.000000
 42
0.813010
  0
ARC
  5
299
100
AcDbEntity
  8
0
370
    20
100
AcDbCircle
 10
112.125000
 20
196.800000
 40
0.575000
100
AcDbArc
 50
314.937500
 51
360.000000
  0
ARC
  5
29c
100
AcDbEntity
  8
0
370
    20
100
AcDbCircle
 10
111.475000
 20
196.175000
 40
0.575000
100
AcDbArc
 50
270.000000
 51
314.937500
  0
ARC
  5
29f
100
AcDbEntity
  8
0
370
    20
100
AcDbCircle
 10
85.725000
 20
196.175000
 40
0.575000
100
AcDbArc
 50
225.437500
 51
270.000000
  0
ARC
  5
2a2
100
AcDbEntity
  8
0
370
    20
100
AcDbCircle
 10
85.075000
 20
196.800000
 40
0.550000
100
AcDbArc
 50
180.000000
 51
225.437500
  0
ARC
  5
2a5
100
AcDbEntity
  8
0
370
    20
100
AcDbCircle
 10
85.100000
 20
219.300000
 40
0.575000
100
AcDbArc
 50
135.125000
 51
180.000000
  0
ARC
  5
2a8
100
AcDbEntity
  8
0
370
    20
100
AcDbCircle
 10
85.700000
 20
219.875000
 40
0.575000
100
AcDbArc
 50
90.000000
 51
135.125000
  0
LWPOLYLINE
  5
2ab
100
AcDbEntity
  8
0
100
AcDbPolyline
 90
     4
 70
     1
 43
0.200000
 10
86.175000
 20
219.725000
 10
110.875000
 20
219.725000
 10
112.025000
 20
218.375000
 10
85.350000
 20
218.375000
  0
LWPOLYLINE
  5
2b6
100
AcDbEntity
  8
0
100
AcDbPolyline
 90
     4
 70
     0
 43
0.200000
 10
85.350000
 20
218.375000
 10
85.350000
 20
196.500000
 10
112.025000
 20
196.500000
 10
112.025000
 20
218.375000
  0
LINE
  5
2c1
100
AcDbEntity
  8
0
370
    20
100
AcDbLine
 10
100.250000
 20
218.375000
 11
100.250000
 21
196.500000
  0
LINE
  5
2c4
100
AcDbEntity
  8
0
370
    20
100
AcDbLine
 10
85.350000
 20
210.975000
 11
100.350000
 21
210.975000
  0
LINE
  5
2c7
100
AcDbEntity
  8
0
370
    20
100
AcDbLine
 10
100.250000
 20
203.175000
 11
85.350000
 21
203.175000
  0
HATCH
  5
2ca
330
F6
100
AcDbEntity
  8
0
100
AcDbHatch
 10
0.0
 20
0.0
 30
0.0
210
0.0
220
0.0
230
1.0
  2
SOLID
 70
     1
 71
     0
 91
     1
 92
     7
 72
     0
 73
     1
 93
     4
 10
103.150000
 20
216.100000
 10
110.775000
 20
216.100000
 10
110.775000
 20
208.600000
 10
103.150000
 20
208.600000
 97
     1
330
2cd
 75
     0
 76
     1
 47
0.651316
 98
     1
 10
0.0
 20
0.0
  0
LWPOLYLINE
  5
2cd
330
F6
100
AcDbEntity
  8
0
100
AcDbPolyline
 90
     4
 70
     1
 43
0.200000
 10
103.150000
 20
216.100000
 10
110.775000
 20
216.100000
 10
110.775000
 20
208.600000
 10
103.150000
 20
208.600000
  0
LWPOLYLINE
  5
2d8
100
AcDbEntity
  8
0
100
AcDbPolyline
 90
     4
 70
     1
 43
0.200000
 10
103.150000
 20
216.100000
 10
110.775000
 20
216.100000
 10
110.775000
 20
208.600000
 10
103.150000
 20
208.600000
  0
LWPOLYLINE
  5
2e3
100
AcDbEntity
  8
0
100
AcDbPolyline
 90
     4
 70
     1
 43
0.200000
 10
103.150000
 20
204.625000
 10
110.775000
 20
204.625000
 10
110.775000
 20
198.175000
 10
103.150000
 20
198.175000
  0
HATCH
  5
2ee
330
F6
100
AcDbEntity
  8
0
100
AcDbHatch
 10
0.0
 20
0.0
 30
0.0
210
0.0
220
0.0
230
1.0
  2
SOLID
 70
     1
 71
     0
 91
     1
 92
     7
 72
     0
 73
     1
 93
     4
 10
109.525000
 20
217.550000
 10
110.450000
 20
217.550000
 10
110.450000
 20
216.600000
 10
109.525000
 20
216.600000
 97
     1
330
2f1
 75
     0
 76
     1
 47
0.651316
 98
     1
 10
0.0
 20
0.0
  0
LWPOLYLINE
  5
2f1
330
F6
100
AcDbEntity
  8
0
100
AcDbPolyline
 90
     4
 70
     1
 43
0.200000
 10
109.525000
 20
217.550000
 10
110.450000
 20
217.550000
 10
110.450000
 20
216.600000
 10
109.525000
 20
216.600000
  0
LWPOLYLINE
  5
2fc
100
AcDbEntity
  8
0
100
AcDbPolyline
 90
     4
 70
     1
 43
0.200000
 10
109.525000
 20
217.550000
 10
110.450000
 20
217.550000
 10
110.450000
 20
216.600000
 10
109.525000
 20
216.600000
  0
HATCH
  5
307
330
F6
100
AcDbEntity
  8
0
100
AcDbHatch
 10
0.0
 20
0.0
 30
0.0
210
0.0
220
0.0
230
1.0
  2
SOLID
 70
     1
 71
     0
 91
     1
 92
     7
 72
     0
 73
     1
 93
     4
 10
101.175000
 20
216.725000
 10
102.325000
 20
216.725000
 10
102.325000
 20
215.675000
 10
101.175000
 20
215.675000
 97
     1
330
30a
 75
     0
 76
     1
 47
0.651316
 98
     1
 10
0.0
 20
0.0
  0
LWPOLYLINE
  5
30a
330
F6
100
AcDbEntity
  8
0
100
AcDbPolyline
 90
     4
 70
     1
 43
0.200000
 10
101.175000
 20
216.725000
 10
102.325000
 20
216.725000
 10
102.325000
 20
215.675000
 10
101.175000
 20
215.675000
  0
LWPOLYLINE
  5
315
100
AcDbEntity
  8
0
100
AcDbPolyline
 90
     4
 70
     1
 43
0.200000
 10
101.175000
 20
216.725000
 10
102.325000
 20
216.725000
 10
102.325000
 20
215.675000
 10
101.175000
 20
215.675000
  0
LINE
  5
320
100
AcDbEntity
  8
0
370
    20
100
AcDbLine
 10
100.550000
 20
218.375000
 11
100.550000
 21
196.500000
  0
HATCH
  5
323
330
F6
100
AcDbEntity
  8
0
100
AcDbHatch
 10
0.0
 20
0.0
 30
0.0
210
0.0
220
0.0
230
1.0
  2
SOLID
 70
     1
 71
     0
 91
     1
 92
     7
 72
     0
 73
     1
 93
     4
 10
101.175000
 20
215.275000
 10
102.325000
 20
215.275000
 10
102.325000
 20
214.225000
 10
101.175000
 20
214.225000
 97
     1
330
326
 75
     0
 76
     1
 47
0.651316
 98
     1
 10
0.0
 20
0.0
  0
LWPOLYLINE
  5
326
330
F6
100
AcDbEntity
  8
0
100
AcDbPolyline
 90
     4
 70
     1
 43
0.200000
 10
101.175000
 20
215.275000
 10
102.325000
 20
215.275000
 10
102.325000
 20
214.225000
 10
101.175000
 20
214.225000
  0
LWPOLYLINE
  5
331
100
AcDbEntity
  8
0
100
AcDbPolyline
 90
     4
 70
     1
 43
0.200000
 10
101.175000
 20
215.275000
 10
102.325000
 20
215.275000
 10
102.325000
 20
214.225000
 10
101.175000
 20
214.225000
  0
HATCH
  5
33c
330
F6
100
AcDbEntity
  8
0
100
AcDbHatch
 10
0.0
 20
0.0
 30
0.0
210
0.0
220
0.0
230
1.0
  2
SOLID
 70
     1
 71
     0
 91
     1
 92
     7
 72
     0
 73
     1
 93
     4
 10
101.175000
 20
213.825000
 10
102.325000
 20
213.825000
 10
102.325000
 20
212.775000
 10
101.175000
 20
212.775000
 97
     1
330
33f
 75
     0
 76
     1
 47
0.651316
 98
     1
 10
0.0
 20
0.0
  0
LWPOLYLINE
  5
33f
330
F6
100
AcDbEntity
  8
0
100
AcDbPolyline
 90
     4
 70
     1
 43
0.200000
 10
101.175000
 20
213.825000
 10
102.325000
 20
213.825000
 10
102.325000
 20
212.775000
 10
101.175000
 20
212.775000
  0
HATCH
  5
34a
330
F6
100
AcDbEntity
  8
0
100
AcDbHatch
 10
0.0
 20
0.0
 30
0.0
210
0.0
220
0.0
230
1.0
  2
SOLID
 70
     1
 71
     0
 91
     1
 92
     7
 72
     0
 73
     1
 93
     4
 10
101.175000
 20
213.825000
 10
102.325000
 20
213.825000
 10
102.325000
 20
212.775000
 10
101.175000
 20
212.775000
 97
     1
330
34d
 75
     0
 76
     1
 47
0.651316
 98
     1
 10
0.0
 20
0.0
  0
LWPOLYLINE
  5
34d
330
F6
100
AcDbEntity
  8
0
100
AcDbPolyline
 90
     4
 70
     1
 43
0.200000
 10
101.175000
 20
213.825000
 10
102.325000
 20
213.825000
 10
102.325000
 20
212.775000
 10
101.175000
 20
212.775000
  0
LWPOLYLINE
  5
358
100
AcDbEntity
  8
0
100
AcDbPolyline
 90
     4
 70
     1
 43
0.200000
 10
101.175000
 20
213.825000
 10
102.325000
 20
213.825000
 10
102.325000
 20
212.775000
 10
101.175000
 20
212.775000
  0
HATCH
  5
363
330
F6
100
AcDbEntity
  8
0
100
AcDbHatch
 10
0.0
 20
0.0
 30
0.0
210
0.0
220
0.0
230
1.0
  2
SOLID
 70
     1
 71
     0
 91
     1
 92
     7
 72
     0
 73
     1
 93
     4
 10
101.175000
 20
212.375000
 10
102.325000
 20
212.375000
 10
102.325000
 20
211.325000
 10
101.175000
 20
211.325000
 97
     1
330
366
 75
     0
 76
     1
 47
0.651316
 98
     1
 10
0.0
 20
0.0
  0
LWPOLYLINE
  5
366
330
F6
100
AcDbEntity
  8
0
100
AcDbPolyline
 90
     4
 70
     1
 43
0.200000
 10
101.175000
 20
212.375000
 10
102.325000
 20
212.375000
 10
102.325000
 20
211.325000
 10
101.175000
 20
211.325000
  0
HATCH
  5
371
330
F6
100
AcDbEntity
  8
0
100
AcDbHatch
 10
0.0
 20
0.0
 30
0.0
210
0.0
220
0.0
230
1.0
  2
SOLID
 70
     1
 71
     0
 91
     1
 92
     7
 72
     0
 73
     1
 93
     4
 10
101.175000
 20
212.375000
 10
102.325000
 20
212.375000
 10
102.325000
 20
211.325000
 10
101.175000
 20
211.325000
 97
     1
330
374
 75
     0
 76
     1
 47
0.651316
 98
     1
 10
0.0
 20
0.0
  0
LWPOLYLINE
  5
374
330
F6
100
AcDbEntity
  8
0
100
AcDbPolyline
 90
     4
 70
     1
 43
0.200000
 10
101.175000
 20
212.375000
 10
102.325000
 20
212.375000
 10
102.325000
 20
211.325000
 10
101.175000
 20
211.325000
  0
LWPOLYLINE
  5
37f
100
AcDbEntity
  8
0
100
AcDbPolyline
 90
     4
 70
     1
 43
0.200000
 10
101.175000
 20
212.375000
 10
102.325000
 20
212.375000
 10
102.325000
 20
211.325000
 10
101.175000
 20
211.325000
  0
HATCH
  5
38a
330
F6
100
AcDbEntity
  8
0
100
AcDbHatch
 10
0.0
 20
0.0
 30
0.0
210
0.0
220
0.0
230
1.0
  2
SOLID
 70
     1
 71
     0
 91
     1
 92
     7
 72
     0
 73
     1
 93
     4
 10
101.175000
 20
210.925000
 10
102.325000
 20
210.925000
 10
102.325000
 20
209.875000
 10
101.175000
 20
209.875000
 97
     1
330
38d
 75
     0
 76
     1
 47
0.651316
 98
     1
 10
0.0
 20
0.0
  0
LWPOLYLINE
  5
38d
330
F6
100
AcDbEntity
  8
0
100
AcDbPolyline
 90
     4
 70
     1
 43
0.200000
 10
101.175000
 20
210.925000
 10
102.325000
 20
210.925000
 10
102.325000
 20
209.875000
 10
101.175000
 20
209.875000
  0
HATCH
  5
398
330
F6
100
AcDbEntity
  8
0
100
AcDbHatch
 10
0.0
 20
0.0
 30
0.0
210
0.0
220
0.0
230
1.0
  2
SOLID
 70
     1
 71
     0
 91
     1
 92
     7
 72
     0
 73
     1
 93
     4
 10
101.175000
 20
210.925000
 10
102.325000
 20
210.925000
 10
102.325000
 20
209.875000
 10
101.175000
 20
209.875000
 97
     1
330
39b
 75
     0
 76
     1
 47
0.651316
 98
     1
 10
0.0
 20
0.0
  0
LWPOLYLINE
  5
39b
330
F6
100
AcDbEntity
  8
0
100
AcDbPolyline
 90
     4
 70
     1
 43
0.200000
 10
101.175000
 20
210.925000
 10
102.325000
 20
210.925000
 10
102.325000
 20
209.875000
 10
101.175000
 20
209.875000
  0
HATCH
  5
3a6
330
F6
100
AcDbEntity
  8
0
100
AcDbHatch
 10
0.0
 20
0.0
 30
0.0
210
0.0
220
0.0
230
1.0
  2
SOLID
 70
     1
 71
     0
 91
     1
 92
     7
 72
     0
 73
     1
 93
     4
 10
101.175000
 20
210.925000
 10
102.325000
 20
210.925000
 10
102.325000
 20
209.875000
 10
101.175000
 20
209.875000
 97
     1
330
3a9
 75
     0
 76
     1
 47
0.651316
 98
     1
 10
0.0
 20
0.0
  0
LWPOLYLINE
  5
3a9
330
F6
100
AcDbEntity
  8
0
100
AcDbPolyline
 90
     4
 70
     1
 43
0.200000
 10
101.175000
 20
210.925000
 10
102.325000
 20
210.925000
 10
102.325000
 20
209.875000
 10
101.175000
 20
209.875000
  0
LWPOLYLINE
  5
3b4
100
AcDbEntity
  8
0
100
AcDbPolyline
 90
     4
 70
     1
 43
0.200000
 10
101.175000
 20
210.925000
 10
102.325000
 20
210.925000
 10
102.325000
 20
209.875000
 10
101.175000
 20
209.875000
  0
HATCH
  5
3bf
330
F6
100
AcDbEntity
  8
0
100
AcDbHatch
 10
0.0
 20
0.0
 30
0.0
210
0.0
220
0.0
230
1.0
  2
SOLID
 70
     1
 71
     0
 91
     1
 92
     7
 72
     0
 73
     1
 93
     4
 10
101.175000
 20
206.125000
 10
102.325000
 20
206.125000
 10
102.325000
 20
205.075000
 10
101.175000
 20
205.075000
 97
     1
330
3c2
 75
     0
 76
     1
 47
0.651316
 98
     1
 10
0.0
 20
0.0
  0
LWPOLYLINE
  5
3c2
330
F6
100
AcDbEntity
  8
0
100
AcDbPolyline
 90
     4
 70
     1
 43
0.200000
 10
101.175000
 20
206.125000
 10
102.325000
 20
206.125000
 10
102.325000
 20
205.075000
 10
101.175000
 20
205.075000
  0
LWPOLYLINE
  5
3cd
100
AcDbEntity
  8
0
100
AcDbPolyline
 90
     4
 70
     1
 43
0.200000
 10
101.175000
 20
206.125000
 10
102.325000
 20
206.125000
 10
102.325000
 20
205.075000
 10
101.175000
 20
205.075000
  0
HATCH
  5
3d8
330
F6
100
AcDbEntity
  8
0
100
AcDbHatch
 10
0.0
 20
0.0
 30
0.0
210
0.0
220
0.0
230
1.0
  2
SOLID
 70
     1
 71
     0
 91
     1
 92
     7
 72
     0
 73
     1
 93
     4
 10
101.175000
 20
202.675000
 10
102.325000
 20
202.675000
 10
102.325000
 20
201.625000
 10
101.175000
 20
201.625000
 97
     1
330
3db
 75
     0
 76
     1
 47
0.651316
 98
     1
 10
0.0
 20
0.0
  0
LWPOLYLINE
  5
3db
330
F6
100
AcDbEntity
  8
0
100
AcDbPolyline
 90
     4
 70
     1
 43
0.200000
 10
101.175000
 20
202.675000
 10
102.325000
 20
202.675000
 10
102.325000
 20
201.625000
 10
101.175000
 20
201.625000
  0
LWPOLYLINE
  5
3e6
100
AcDbEntity
  8
0
100
AcDbPolyline
 90
     4
 70
     1
 43
0.200000
 10
101.175000
 20
202.675000
 10
102.325000
 20
202.675000
 10
102.325000
 20
201.625000
 10
101.175000
 20
201.625000
  0
HATCH
  5
3f1
330
F6
100
AcDbEntity
  8
0
100
AcDbHatch
 10
0.0
 20
0.0
 30
0.0
210
0.0
220
0.0
230
1.0
  2
SOLID
 70
     1
 71
     0
 91
     1
 92
     7
 72
     0
 73
     1
 93
     4
 10
101.175000
 20
201.025000
 10
102.325000
 20
201.025000
 10
102.325000
 20
199.975000
 10
101.175000
 20
199.975000
 97
     1
330
3f4
 75
     0
 76
     1
 47
0.651316
 98
     1
 10
0.0
 20
0.0
  0
LWPOLYLINE
  5
3f4
330
F6
100
AcDbEntity
  8
0
100
AcDbPolyline
 90
     4
 70
     1
 43
0.200000
 10
101.175000
 20
201.025000
 10
102.325000
 20
201.025000
 10
102.325000
 20
199.975000
 10
101.175000
 20
199.975000
  0
LWPOLYLINE
  5
3ff
100
AcDbEntity
  8
0
100
AcDbPolyline
 90
     4
 70
     1
 43
0.200000
 10
101.175000
 20
201.025000
 10
102.325000
 20
201.025000
 10
102.325000
 20
199.975000
 10
101.175000
 20
199.975000
  0
HATCH
  5
40a
330
F6
100
AcDbEntity
  8
0
100
AcDbHatch
 10
0.0
 20
0.0
 30
0.0
210
0.0
220
0.0
230
1.0
  2
SOLID
 70
     1
 71
     0
 91
     1
 92
     7
 72
     0
 73
     1
 93
     4
 10
101.175000
 20
199.450000
 10
102.325000
 20
199.450000
 10
102.325000
 20
198.400000
 10
101.175000
 20
198.400000
 97
     1
330
40d
 75
     0
 76
     1
 47
0.651316
 98
     1
 10
0.0
 20
0.0
  0
LWPOLYLINE
  5
40d
330
F6
100
AcDbEntity
  8
0
100
AcDbPolyline
 90
     4
 70
     1
 43
0.200000
 10
101.175000
 20
199.450000
 10
102.325000
 20
199.450000
 10
102.325000
 20
198.400000
 10
101.175000
 20
198.400000
  0
HATCH
  5
418
330
F6
100
AcDbEntity
  8
0
100
AcDbHatch
 10
0.0
 20
0.0
 30
0.0
210
0.0
220
0.0
230
1.0
  2
SOLID
 70
     1
 71
     0
 91
     1
 92
     7
 72
     0
 73
     1
 93
     4
 10
101.175000
 20
199.450000
 10
102.325000
 20
199.450000
 10
102.325000
 20
198.400000
 10
101.175000
 20
198.400000
 97
     1
330
41b
 75
     0
 76
     1
 47
0.651316
 98
     1
 10
0.0
 20
0.0
  0
LWPOLYLINE
  5
41b
330
F6
100
AcDbEntity
  8
0
100
AcDbPolyline
 90
     4
 70
     1
 43
0.200000
 10
101.175000
 20
199.450000
 10
102.325000
 20
199.450000
 10
102.325000
 20
198.400000
 10
101.175000
 20
198.400000
  0
LWPOLYLINE
  5
426
100
AcDbEntity
  8
0
100
AcDbPolyline
 90
     4
 70
     1
 43
0.200000
 10
101.175000
 20
199.450000
 10
102.325000
 20
199.450000
 10
102.325000
 20
198.400000
 10
101.175000
 20
198.400000
  0
HATCH
  5
431
330
F6
100
AcDbEntity
  8
0
100
AcDbHatch
 10
0.0
 20
0.0
 30
0.0
210
0.0
220
0.0
230
1.0
  2
SOLID
 70
     1
 71
     0
 91
     1
 92
     7
 72
     0
 73
     1
 93
     4
 10
103.475000
 20
204.325000
 10
110.375000
 20
204.325000
 10
110.375000
 20
198.475000
 10
103.475000
 20
198.475000
 97
     1
330
434
 75
     0
 76
     1
 47
0.651316
 98
     1
 10
0.0
 20
0.0
  0
LWPOLYLINE
  5
434
330
F6
100
AcDbEntity
  8
0
100
AcDbPolyline
 90
     4
 70
     1
 43
0.200000
 10
103.475000
 20
204.325000
 10
110.375000
 20
204.325000
 10
110.375000
 20
198.475000
 10
103.475000
 20
198.475000
  0
LWPOLYLINE
  5
43f
100
AcDbEntity
  8
0
100
AcDbPolyline
 90
     4
 70
     1
 43
0.200000
 10
103.475000
 20
204.325000
 10
110.375000
 20
204.325000
 10
110.375000
 20
198.475000
 10
103.475000
 20
198.475000
  0
LINE
  5
44a
100
AcDbEntity
  8
0
370
    20
100
AcDbLine
 10
106.925000
 20
198.475000
 11
106.925000
 21
204.325000
  0
LINE
  5
44d
100
AcDbEntity
  8
0
370
    20
100
AcDbLine
 10
110.300000
 20
201.375000
 11
103.475000
 21
201.400000
  0
LINE
  5
450
100
AcDbEntity
  8
0
370
    20
100
AcDbLine
 10
110.300000
 20
202.750000
 11
103.475000
 21
202.775000
  0
LINE
  5
453
100
AcDbEntity
  8
0
370
    20
100
AcDbLine
 10
110.300000
 20
199.875000
 11
103.475000
 21
199.900000
  0
LINE
  5
456
100
AcDbEntity
  8
0
370
    20
100
AcDbLine
 10
105.350000
 20
198.475000
 11
105.350000
 21
204.325000
  0
LINE
  5
459
100
AcDbEntity
  8
0
370
    20
100
AcDbLine
 10
108.725000
 20
198.475000
 11
108.725000
 21
204.325000
  0
LWPOLYLINE
  5
45c
100
AcDbEntity
  8
0
100
AcDbPolyline
 90
     4
 70
     1
 43
0.200000
 10
85.750000
 20
202.150000
 10
86.225000
 20
202.150000
 10
86.225000
 20
197.325000
 10
85.750000
 20
197.325000
  0
LWPOLYLINE
  5
467
100
AcDbEntity
  8
0
100
AcDbPolyline
 90
     4
 70
     1
 43
0.200000
 10
99.350000
 20
202.150000
 10
99.825000
 20
202.150000
 10
99.825000
 20
197.325000
 10
99.350000
 20
197.325000
  0
LWPOLYLINE
  5
472
100
AcDbEntity
  8
0
100
AcDbPolyline
 90
     4
 70
     1
 43
0.200000
 10
85.750000
 20
209.325000
 10
86.225000
 20
209.325000
 10
86.225000
 20
204.500000
 10
85.750000
 20
204.500000
  0
LWPOLYLINE
  5
47d
100
AcDbEntity
  8
0
100
AcDbPolyline
 90
     4
 70
     1
 43
0.200000
 10
99.350000
 20
209.325000
 10
99.825000
 20
209.325000
 10
99.825000
 20
204.500000
 10
99.350000
 20
204.500000
  0
LWPOLYLINE
  5
488
100
AcDbEntity
  8
0
100
AcDbPolyline
 90
     4
 70
     1
 43
0.200000
 10
85.750000
 20
216.975000
 10
86.225000
 20
216.975000
 10
86.225000
 20
212.150000
 10
85.750000
 20
212.150000
  0
LWPOLYLINE
  5
493
100
AcDbEntity
  8
0
100
AcDbPolyline
 90
     4
 70
     1
 43
0.200000
 10
99.350000
 20
216.975000
 10
99.825000
 20
216.975000
 10
99.825000
 20
212.150000
 10
99.350000
 20
212.150000
  0
HATCH
  5
49e
330
F6
100
AcDbEntity
  8
0
100
AcDbHatch
 10
0.0
 20
0.0
 30
0.0
210
0.0
220
0.0
230
1.0
  2
SOLID
 70
     1
 71
     0
 91
     1
 92
     7
 72
     0
 73
     1
 93
     4
 10
87.250000
 20
201.450000
 10
98.725000
 20
201.450000
 10
98.725000
 20
198.175000
 10
87.250000
 20
198.175000
 97
     1
330
4a1
 75
     0
 76
     1
 47
0.651316
 98
     1
 10
0.0
 20
0.0
  0
LWPOLYLINE
  5
4a1
330
F6
100
AcDbEntity
  8
0
100
AcDbPolyline
 90
     4
 70
     1
 43
0.200000
 10
87.250000
 20
201.450000
 10
98.725000
 20
201.450000
 10
98.725000
 20
198.175000
 10
87.250000
 20
198.175000
  0
LWPOLYLINE
  5
4ac
100
AcDbEntity
  8
0
100
AcDbPolyline
 90
     4
 70
     1
 43
0.200000
 10
87.250000
 20
201.450000
 10
98.725000
 20
201.450000
 10
98.725000
 20
198.175000
 10
87.250000
 20
198.175000
  0
CIRCLE
  5
4b7
100
AcDbEntity
  8
0
370
    20
100
AcDbCircle
 10
86.775000
 20
198.400000
 40
0.350000
  0
LWPOLYLINE
  5
4ba
100
AcDbEntity
  8
0
100
AcDbPolyline
 90
     4
 70
     1
 43
0.200000
 10
87.475000
 20
209.025000
 10
98.100000
 20
209.025000
 10
98.100000
 20
204.350000
 10
87.475000
 20
204.350000
  0
HATCH
  5
4c5
330
F6
100
AcDbEntity
  8
0
100
AcDbHatch
 10
0.0
 20
0.0
 30
0.0
210
0.0
220
0.0
230
1.0
  2
SOLID
 70
     1
 71
     0
 91
     1
 92
     7
 72
     0
 73
     1
 93
     4
 10
90.925000
 20
205.675000
 10
95.050000
 20
205.675000
 10
95.050000
 20
204.900000
 10
90.925000
 20
204.900000
 97
     1
330
4c8
 75
     0
 76
     1
 47
0.651316
 98
     1
 10
0.0
 20
0.0
  0
LWPOLYLINE
  5
4c8
330
F6
100
AcDbEntity
  8
0
100
AcDbPolyline
 90
     4
 70
     1
 43
0.200000
 10
90.925000
 20
205.675000
 10
95.050000
 20
205.675000
 10
95.050000
 20
204.900000
 10
90.925000
 20
204.900000
  0
LWPOLYLINE
  5
4d3
100
AcDbEntity
  8
0
100
AcDbPolyline
 90
     4
 70
     1
 43
0.200000
 10
90.925000
 20
205.675000
 10
95.050000
 20
205.675000
 10
95.050000
 20
204.900000
 10
90.925000
 20
204.900000
  0
LINE
  5
4de
100
AcDbEntity
  8
0
370
    20
100
AcDbLine
 10
87.475000
 20
205.050000
 11
90.850000
 21
205.050000
  0
LINE
  5
4e1
100
AcDbEntity
  8
0
370
    20
100
AcDbLine
 10
95.150000
 20
205.050000
 11
98.100000
 21
205.050000
  0
LINE
  5
4e4
100
AcDbEntity
  8
0
370
    20
100
AcDbLine
 10
89.125000
 20
209.025000
 11
89.125000
 21
204.275000
  0
LINE
  5
4e7
100
AcDbEntity
  8
0
370
    20
100
AcDbLine
 10
96.550000
 20
209.025000
 11
96.550000
 21
204.275000
  0
HATCH
  5
4ea
330
F6
100
AcDbEntity
  8
0
100
AcDbHatch
 10
0.0
 20
0.0
 30
0.0
210
0.0
220
0.0
230
1.0
  2
SOLID
 70
     1
 71
     0
 91
     1
 92
     7
 72
     0
 73
     1
 93
     4
 10
103.650000
 20
215.600000
 10
110.300000
 20
215.600000
 10
110.300000
 20
208.950000
 10
103.650000
 20
208.950000
 97
     1
330
4ed
 75
     0
 76
     1
 47
0.651316
 98
     1
 10
0.0
 20
0.0
  0
LWPOLYLINE
  5
4ed
330
F6
100
AcDbEntity
  8
0
100
AcDbPolyline
 90
     4
 70
     1
 43
0.200000
 10
103.650000
 20
215.600000
 10
110.300000
 20
215.600000
 10
110.300000
 20
208.950000
 10
103.650000
 20
208.950000
  0
HATCH
  5
4f8
330
F6
100
AcDbEntity
  8
0
100
AcDbHatch
 10
0.0
 20
0.0
 30
0.0
210
0.0
220
0.0
230
1.0
  2
SOLID
 70
     1
 71
     0
 91
     1
 92
     7
 72
     0
 73
     1
 93
     4
 10
103.650000
 20
215.600000
 10
110.300000
 20
215.600000
 10
110.300000
 20
208.950000
 10
103.650000
 20
208.950000
 97
     1
330
4fb
 75
     0
 76
     1
 47
0.651316
 98
     1
 10
0.0
 20
0.0
  0
LWPOLYLINE
  5
4fb
330
F6
100
AcDbEntity
  8
0
100
AcDbPolyline
 90
     4
 70
     1
 43
0.200000
 10
103.650000
 20
215.600000
 10
110.300000
 20
215.600000
 10
110.300000
 20
208.950000
 10
103.650000
 20
208.950000
  0
LWPOLYLINE
  5
506
100
AcDbEntity
  8
0
100
AcDbPolyline
 90
     4
 70
     1
 43
0.200000
 10
103.650000
 20
215.600000
 10
110.300000
 20
215.600000
 10
110.300000
 20
208.950000
 10
103.650000
 20
208.950000
  0
HATCH
  5
511
330
F6
100
AcDbEntity
  8
0
100
AcDbHatch
 10
0.0
 20
0.0
 30
0.0
210
0.0
220
0.0
230
1.0
  2
SOLID
 70
     1
 71
     0
 91
     1
 92
     7
 72
     0
 73
     1
 93
    31
 10
87.000000
 20
218.900000
 10
87.000000
 20
218.850000
 10
86.975000
 20
218.800000
 10
86.925000
 20
218.750000
 10
86.850000
 20
218.725000
 10
86.800000
 20
218.700000
 10
86.700000
 20
218.675000
 10
86.450000
 20
218.675000
 10
86.225000
 20
218.750000
 10
86.175000
 20
218.775000
 10
86.125000
 20
218.825000
 10
86.125000
 20
218.900000
 10
86.125000
 20
218.950000
 10
86.200000
 20
219.150000
 10
86.150000
 20
219.100000
 10
86.125000
 20
219.050000
 10
86.125000
 20
218.950000
 10
86.175000
 20
218.850000
 10
86.225000
 20
218.825000
 10
86.300000
 20
218.775000
 10
86.375000
 20
218.750000
 10
86.725000
 20
218.750000
 10
86.875000
 20
218.800000
 10
86.925000
 20
218.850000
 10
86.975000
 20
218.875000
 10
86.975000
 20
218.925000
 10
87.000000
 20
218.925000
 10
87.000000
 20
219.025000
 10
86.950000
 20
219.125000
 10
86.900000
 20
219.150000
 10
86.975000
 20
218.925000
 97
     1
330
514
 75
     0
 76
     1
 47
0.651316
 98
     1
 10
0.0
 20
0.0
  0
LWPOLYLINE
  5
514
330
F6
100
AcDbEntity
  8
0
100
AcDbPolyline
 90
    32
 70
     0
 43
0.200000
 10
87.000000
 20
218.900000
 10
87.000000
 20
218.850000
 10
86.975000
 20
218.800000
 10
86.925000
 20
218.750000
 10
86.850000
 20
218.725000
 10
86.800000
 20
218.700000
 10
86.700000
 20
218.675000
 10
86.450000
 20
218.675000
 10
86.225000
 20
218.750000
 10
86.175000
 20
218.775000
 10
86.125000
 20
218.825000
 10
86.125000
 20
218.900000
 10
86.125000
 20
218.950000
 10
86.200000
 20
219.150000
 10
86.150000
 20
219.100000
 10
86.125000
 20
219.050000
 10
86.125000
 20
218.950000
 10
86.175000
 20
218.850000
 10
86.225000
 20
218.825000
 10
86.300000
 20
218.775000
 10
86.375000
 20
218.750000
 10
86.725000
 20
218.750000
 10
86.875000
 20
218.800000
 10
86.925000
 20
218.850000
 10
86.975000
 20
218.875000
 10
86.975000
 20
218.925000
 10
87.000000
 20
218.925000
 10
87.000000
 20
219.025000
 10
86.950000
 20
219.125000
 10
86.900000
 20
219.150000
 10
86.975000
 20
218.925000
 10
87.000000
 20
218.900000
  0
ELLIPSE
  5
557
100
AcDbEntity
  8
0
370
    20
100
AcDbEllipse
 10
86.575000
 20
218.900000
 30
0.000000
 11
0.450000
 21
-0.000000000000000
 31
0.000000
210
0.000000
220
0.000000
230
1.000000
 40
0.555556
 41
3.215224
 42
6.209554
  0
ELLIPSE
  5
55a
100
AcDbEntity
  8
0
370
    20
100
AcDbEllipse
 10
86.575000
 20
218.975000
 30
0.000000
 11
0.450000
 21
-0.000000000000000
 31
0.000000
210
0.000000
220
0.000000
230
1.000000
 40
0.555556
 41
2.524932
 42
0.693359
  0
ELLIPSE
  5
55d
100
AcDbEntity
  8
0
370
    20
100
AcDbEllipse
 10
86.575000
 20
219.175000
 30
0.000000
 11
0.325000
 21
-0.0000000000000000
 31
0.000000
210
0.000000
220
0.000000
230
1.000000
 40
0.769231
 41
0.000000
 42
6.283185
  0
ELLIPSE
  5
560
100
AcDbEntity
  8
0
370
    20
100
AcDbEllipse
 10
88.200000
 20
218.925000
 30
0.000000
 11
0.600000
 21
-0.000000000000000
 31
0.000000
210
0.000000
220
0.000000
230
1.000000
 40
0.458333
 41
3.230564
 42
6.194214
  0
ELLIPSE
  5
563
100
AcDbEntity
  8
0
370
    20
100
AcDbEllipse
 10
88.200000
 20
219.025000
 30
0.000000
 11
0.600000
 21
-0.000000000000000
 31
0.000000
210
0.000000
220
0.000000
230
1.000000
 40
0.458333
 41
2.432894
 42
0.788466
  0
ELLIPSE
  5
566
100
AcDbEntity
  8
0
370
    20
100
AcDbEllipse
 10
88.200000
 20
219.275000
 30
0.000000
 11
0.450000
 21
-0.000000000000000
 31
0.000000
210
0.000000
220
0.000000
230
1.000000
 40
0.555556
 41
0.000000
 42
6.283185
  0
ELLIPSE
  5
569
100
AcDbEntity
  8
0
370
    20
100
AcDbEllipse
 10
90.600000
 20
218.925000
 30
0.000000
 11
0.600000
 21
-0.000000000000000
 31
0.000000
210
0.000000
220
0.000000
230
1.000000
 40
0.458333
 41
3.230564
 42
6.194214
  0
ELLIPSE
  5
56c
100
AcDbEntity
  8
0
370
    20
100
AcDbEllipse
 10
90.600000
 20
219.025000
 30
0.000000
 11
0.600000
 21
-0.000000000000000
 31
0.000000
210
0.000000
220
0.000000
230
1.000000
 40
0.458333
 41
2.432894
 42
0.788466
  0
ELLIPSE
  5
56f
100
AcDbEntity
  8
0
370
    20
100
AcDbEllipse
 10
90.600000
 20
219.275000
 30
0.000000
 11
0.450000
 21
-0.000000000000000
 31
0.000000
210
0.000000
220
0.000000
230
1.000000
 40
0.555556
 41
0.000000
 42
6.283185
  0
ELLIPSE
  5
572
100
AcDbEntity
  8
0
370
    20
100
AcDbEllipse
 10
93.050000
 20
218.925000
 30
0.000000
 11
0.600000
 21
-0.000000000000000
 31
0.000000
210
0.000000
220
0.000000
230
1.000000
 40
0.458333
 41
3.230564
 42
6.194214
  0
ELLIPSE
  5
575
100
AcDbEntity
  8
0
370
    20
100
AcDbEllipse
 10
93.050000
 20
219.025000
 30
0.000000
 11
0.600000
 21
-0.000000000000000
 31
0.000000
210
0.000000
220
0.000000
230
1.000000
 40
0.458333
 41
2.432894
 42
0.788466
  0
ELLIPSE
  5
578
100
AcDbEntity
  8
0
370
    20
100
AcDbEllipse
 10
93.050000
 20
219.275000
 30
0.000000
 11
0.450000
 21
-0.000000000000000
 31
0.000000
210
0.000000
220
0.000000
230
1.000000
 40
0.555556
 41
0.000000
 42
6.283185
  0
ELLIPSE
  5
57b
100
AcDbEntity
  8
0
370
    20
100
AcDbEllipse
 10
95.475000
 20
218.925000
 30
0.000000
 11
0.600000
 21
-0.000000000000000
 31
0.000000
210
0.000000
220
0.000000
230
1.000000
 40
0.458333
 41
3.230564
 42
6.194214
  0
ELLIPSE
  5
57e
100
AcDbEntity
  8
0
370
    20
100
AcDbEllipse
 10
95.475000
 20
219.025000
 30
0.000000
 11
0.600000
 21
-0.000000000000000
 31
0.000000
210
0.000000
220
0.000000
230
1.000000
 40
0.458333
 41
2.432894
 42
0.788466
  0
ELLIPSE
  5
581
100
AcDbEntity
  8
0
370
    20
100
AcDbEllipse
 10
95.475000
 20
219.275000
 30
0.000000
 11
0.450000
 21
-0.000000000000000
 31
0.000000
210
0.000000
220
0.000000
230
1.000000
 40
0.555556
 41
0.000000
 42
6.283185
  0
ELLIPSE
  5
584
100
AcDbEntity
  8
0
370
    20
100
AcDbEllipse
 10
107.975000
 20
218.925000
 30
0.000000
 11
1.775000
 21
-0.000000000000000
 31
0.000000
210
0.000000
220
0.000000
230
1.000000
 40
0.140845
 41
3.233632
 42
6.191146
  0
ELLIPSE
  5
587
100
AcDbEntity
  8
0
370
    20
100
AcDbEllipse
 10
107.975000
 20
219.025000
 30
0.000000
 11
1.775000
 21
-0.000000000000000
 31
0.000000
210
0.000000
220
0.000000
230
1.000000
 40
0.140845
 41
2.396078
 42
0.831418
  0
ELLIPSE
  5
58a
100
AcDbEntity
  8
0
370
    20
100
AcDbEllipse
 10
107.975000
 20
219.275000
 30
0.000000
 11
1.600000
 21
-0.000000000000000
 31
0.000000
210
0.000000
220
0.000000
230
1.000000
 40
0.156250
 41
0.000000
 42
6.283185
  0
ELLIPSE
  5
58d
100
AcDbEntity
  8
0
370
    20
100
AcDbEllipse
 10
103.700000
 20
218.925000
 30
0.000000
 11
1.200000
 21
-0.000000000000000
 31
0.000000
210
0.000000
220
0.000000
230
1.000000
 40
0.229167
 41
3.230564
 42
6.194214
  0
ELLIPSE
  5
590
100
AcDbEntity
  8
0
370
    20
100
AcDbEllipse
 10
103.700000
 20
219.025000
 30
0.000000
 11
1.200000
 21
-0.000000000000000
 31
0.000000
210
0.000000
220
0.000000
230
1.000000
 40
0.229167
 41
2.445165
 42
0.794602
  0
ELLIPSE
  5
593
100
AcDbEntity
  8
0
370
    20
100
AcDbEllipse
 10
103.700000
 20
219.275000
 30
0.000000
 11
1.125000
 21
-0.000000000000000
 31
0.000000
210
0.000000
220
0.000000
230
1.000000
 40
0.222222
 41
0.000000
 42
6.283185
  0
ELLIPSE
  5
596
100
AcDbEntity
  8
0
370
    20
100
AcDbEllipse
 10
100.275000
 20
218.925000
 30
0.000000
 11
0.600000
 21
-0.000000000000000
 31
0.000000
210
0.000000
220
0.000000
230
1.000000
 40
0.458333
 41
3.230564
 42
6.194214
  0
ELLIPSE
  5
599
100
AcDbEntity
  8
0
370
    20
100
AcDbEllipse
 10
100.275000
 20
219.025000
 30
0.000000
 11
0.600000
 21
-0.000000000000000
 31
0.000000
210
0.000000
220
0.000000
230
1.000000
 40
0.458333
 41
2.432894
 42
0.788466
  0
ELLIPSE
  5
59c
100
AcDbEntity
  8
0
370
    20
100
AcDbEllipse
 10
100.275000
 20
219.275000
 30
0.000000
 11
0.450000
 21
-0.000000000000000
 31
0.000000
210
0.000000
220
0.000000
230
1.000000
 40
0.555556
 41
0.000000
 42
6.283185
  0
ELLIPSE
  5
59f
100
AcDbEntity
  8
0
370
    20
100
AcDbEllipse
 10
97.900000
 20
218.925000
 30
0.000000
 11
0.600000
 21
-0.000000000000000
 31
0.000000
210
0.000000
220
0.000000
230
1.000000
 40
0.458333
 41
3.230564
 42
6.194214
  0
ELLIPSE
  5
5a2
100
AcDbEntity
  8
0
370
    20
100
AcDbEllipse
 10
97.900000
 20
219.025000
 30
0.000000
 11
0.600000
 21
-0.000000000000000
 31
0.000000
210
0.000000
220
0.000000
230
1.000000
 40
0.458333
 41
2.432894
 42
0.788466
  0
ELLIPSE
  5
5a5
100
AcDbEntity
  8
0
370
    20
100
AcDbEllipse
 10
97.900000
 20
219.275000
 30
0.000000
 11
0.450000
 21
-0.000000000000000
 31
0.000000
210
0.000000
220
0.000000
230
1.000000
 40
0.555556
 41
0.000000
 42
6.283185
  0
MTEXT
  5
5a8
100
AcDbEntity
  8
0
100
AcDbMText
 10
76.400000
 20
231.175000
 40
2.681250
 41
61.132500
 71
     1
 72
     5
  1
\fＭＳ 明朝|b0|i0|c128|p17;\T1.0200;記録器(シ　オロカ　ー3030)
 44
0.869538
 73
     1
  7
BIGFONT
  0
MTEXT
  5
5ab
100
AcDbEntity
  8
0
100
AcDbMText
 10
117.025000
 20
208.025000
 40
2.681250
 41
38.610000
 71
     1
 72
     5
  1
\fＭＳ 明朝|b0|i0|c128|p17;\T1.0200;電源(ハ　ッテリー)
 44
0.869538
 73
     1
  7
BIGFONT
  0
MTEXT
  5
5ae
100
AcDbEntity
  8
0
100
AcDbMText
 10
29.050000
 20
90.875000
 40
1.612500
 41
15.480000
 71
     1
 72
     5
  1
\fＭＳ 明朝|b0|i0|c128|p17;\H1.6125;\T1.0200;プロー\T1.2463;ブ
 44
0.944863
 73
     1
  7
BIGFONT
  0
LINE
  5
5b1
100
AcDbEntity
  8
0
370
    20
100
AcDbLine
 10
37.500000
 20
87.550000
 11
46.250000
 21
81.925000
  0
LWPOLYLINE
  5
5b4
100
AcDbEntity
  8
0
100
AcDbPolyline
 90
     3
 70
     0
 43
0.200000
 10
43.275000
 20
82.475000
 10
46.250000
 20
81.925000
 10
44.525000
 20
84.400000
  0
MTEXT
  5
5bd
100
AcDbEntity
  8
0
100
AcDbMText
 10
57.800000
 20
184.825000
 40
1.612500
 41
38.700000
 71
     1
 72
     5
  1
\fＭＳ 明朝|b0|i0|c128|p17;\H1.6125;\T1.0200;孔径変位検出ケーブ\T1.2463;ル
 44
0.944863
 73
     1
  7
BIGFONT
  0
MTEXT
  5
5c0
100
AcDbEntity
  8
0
100
AcDbMText
 10
65.925000
 20
56.175000
 40
2.681250
 41
45.045000
 71
     1
 72
     5
  1
\fＭＳ 明朝|b0|i0|c128|p17;\T1.0200;プローブ拡大図
 44
0.869538
 73
     1
  7
BIGFONT
  0
ELLIPSE
  5
5c3
100
AcDbEntity
  8
0
370
    20
100
AcDbEllipse
 10
50.275000
 20
79.975000
 30
0.000000
 11
0.00000000000000
 21
15.075000
 31
0.000000
210
0.000000
220
0.000000
230
1.000000
 40
0.583748
 41
0.000000
 42
6.283185
  0
LWPOLYLINE
  5
5c6
100
AcDbEntity
  8
0
100
AcDbPolyline
 90
     7
 70
     0
 43
0.200000
 10
60.475000
 20
81.875000
 10
76.300000
 20
94.175000
 10
75.625000
 20
104.925000
 10
83.350000
 20
90.050000
 10
78.500000
 20
72.600000
 10
77.400000
 20
83.575000
 10
60.600000
 20
79.300000
  0
SPLINE
  5
5d7
100
AcDbEntity
  8
0
370
    20
100
AcDbSpline
210
0.000000
220
0.000000
230
1.000000
 70
     8
 71
     3
 72
    11
 73
     7
 74
     0
 42
0.0000001
 43
0.0000001
 44
0.0000000001
 40
0.000000
 40
0.000000
 40
0.000000
 40
0.000000
 40
4.575068
 40
4.575068
 40
4.575068
 40
9.631005
 40
9.631005
 40
9.631005
 40
9.631005
 10
122.500000
 20
221.400000
 30
0.000000
 10
121.900000
 20
221.850000
 30
0.000000
 10
120.275000
 20
223.775000
 30
0.000000
 10
118.825000
 20
224.125000
 30
0.000000
 10
117.400000
 20
224.450000
 30
0.000000
 10
114.675000
 20
223.500000
 30
0.000000
 10
113.825000
 20
223.375000
 30
0.000000
  0
SPLINE
  5
5da
100
AcDbEntity
  8
0
370
    20
100
AcDbSpline
210
0.000000
220
0.000000
230
1.000000
 70
     8
 71
     3
 72
    11
 73
     7
 74
     0
 42
0.0000001
 43
0.0000001
 44
0.0000000001
 40
0.000000
 40
0.000000
 40
0.000000
 40
0.000000
 40
8.972493
 40
8.972493
 40
8.972493
 40
17.368399
 40
17.368399
 40
17.368399
 40
17.368399
 10
129.225000
 20
221.125000
 30
0.000000
 10
127.975000
 20
221.925000
 30
0.000000
 10
124.325000
 20
225.650000
 30
0.000000
 10
121.725000
 20
226.050000
 30
0.000000
 10
119.150000
 20
226.425000
 30
0.000000
 10
115.100000
 20
223.850000
 30
0.000000
 10
113.750000
 20
223.425000
 30
0.000000
  0
SPLINE
  5
5dd
100
AcDbEntity
  8
0
370
    40
100
AcDbSpline
210
0.000000
220
0.000000
230
1.000000
 70
     8
 71
     3
 72
    14
 73
    10
 74
     0
 42
0.0000001
 43
0.0000001
 44
0.0000000001
 40
0.000000
 40
0.000000
 40
0.000000
 40
0.000000
 40
3.775745
 40
3.775745
 40
3.775745
 40
21.205927
 40
21.205927
 40
21.205927
 40
26.699389
 40
26.699389
 40
26.699389
 40
26.699389
 10
88.200000
 20
219.275000
 30
0.000000
 10
88.700000
 20
219.650000
 30
0.000000
 10
87.775000
 20
221.125000
 30
0.000000
 10
91.175000
 20
221.600000
 30
0.000000
 10
94.575000
 20
222.050000
 30
0.000000
 10
104.825000
 20
221.725000
 30
0.000000
 10
108.600000
 20
222.025000
 30
0.000000
 10
112.400000
 20
222.300000
 30
0.000000
 10
113.050000
 20
223.150000
 30
0.000000
 10
113.925000
 20
223.375000
 30
0.000000
  0
LINE
  5
5e0
100
AcDbEntity
  8
0
370
    20
100
AcDbLine
 10
121.025000
 20
220.750000
 11
130.575000
 21
220.750000
  0
LINE
  5
5e3
100
AcDbEntity
  8
0
370
    20
100
AcDbLine
 10
130.950000
 20
220.375000
 11
130.950000
 21
211.450000
  0
LINE
  5
5e6
100
AcDbEntity
  8
0
370
    20
100
AcDbLine
 10
130.575000
 20
211.075000
 11
121.025000
 21
211.075000
  0
LINE
  5
5e9
100
AcDbEntity
  8
0
370
    20
100
AcDbLine
 10
120.650000
 20
211.450000
 11
120.650000
 21
220.375000
  0
ARC
  5
5ec
100
AcDbEntity
  8
0
370
    20
100
AcDbCircle
 10
130.550000
 20
220.350000
 40
0.375000
100
AcDbArc
 50
360.000000
 51
90.000000
  0
ARC
  5
5ef
100
AcDbEntity
  8
0
370
    20
100
AcDbCircle
 10
130.550000
 20
211.475000
 40
0.375000
100
AcDbArc
 50
270.000000
 51
360.000000
  0
ARC
  5
5f2
100
AcDbEntity
  8
0
370
    20
100
AcDbCircle
 10
121.050000
 20
211.475000
 40
0.375000
100
AcDbArc
 50
180.000000
 51
270.000000
  0
ARC
  5
5f5
100
AcDbEntity
  8
0
370
    20
100
AcDbCircle
 10
121.050000
 20
220.350000
 40
0.375000
100
AcDbArc
 50
90.000000
 51
180.000000
  0
LINE
  5
5f8
100
AcDbEntity
  8
0
370
    20
100
AcDbLine
 10
120.975000
 20
220.200000
 11
130.500000
 21
220.200000
  0
LINE
  5
5fb
100
AcDbEntity
  8
0
370
    20
100
AcDbLine
 10
122.925000
 20
218.800000
 11
122.925000
 21
212.400000
  0
LINE
  5
5fe
100
AcDbEntity
  8
0
370
    20
100
AcDbLine
 10
125.800000
 20
218.800000
 11
125.800000
 21
212.400000
  0
LINE
  5
601
100
AcDbEntity
  8
0
370
    20
100
AcDbLine
 10
128.700000
 20
218.800000
 11
128.700000
 21
212.400000
  0
LINE
  5
604
100
AcDbEntity
  8
0
370
    20
100
AcDbLine
 10
128.675000
 20
220.750000
 11
128.675000
 21
221.275000
  0
LINE
  5
607
100
AcDbEntity
  8
0
370
    20
100
AcDbLine
 10
129.000000
 20
221.600000
 11
129.325000
 21
221.600000
  0
LINE
  5
60a
100
AcDbEntity
  8
0
370
    20
100
AcDbLine
 10
129.650000
 20
221.275000
 11
129.650000
 21
220.750000
  0
ARC
  5
60d
100
AcDbEntity
  8
0
370
    20
100
AcDbCircle
 10
129.025000
 20
221.250000
 40
0.325000
100
AcDbArc
 50
90.000000
 51
180.000000
  0
ARC
  5
610
100
AcDbEntity
  8
0
370
    20
100
AcDbCircle
 10
129.300000
 20
221.250000
 40
0.325000
100
AcDbArc
 50
360.000000
 51
90.000000
  0
HATCH
  5
613
330
F6
100
AcDbEntity
  8
0
100
AcDbHatch
 10
0.0
 20
0.0
 30
0.0
210
0.0
220
0.0
230
1.0
  2
SOLID
 70
     1
 71
     0
 91
     1
 92
     7
 72
     0
 73
     1
 93
     8
 10
128.700000
 20
220.750000
 10
128.700000
 20
221.225000
 10
128.825000
 20
221.500000
 10
128.975000
 20
221.575000
 10
129.200000
 20
221.600000
 10
129.475000
 20
221.525000
 10
129.625000
 20
221.300000
 10
129.625000
 20
220.750000
 97
     1
330
616
 75
     0
 76
     1
 47
0.651316
 98
     1
 10
0.0
 20
0.0
  0
LWPOLYLINE
  5
616
330
F6
100
AcDbEntity
  8
0
100
AcDbPolyline
 90
     8
 70
     1
 43
0.200000
 10
128.700000
 20
220.750000
 10
128.700000
 20
221.225000
 10
128.825000
 20
221.500000
 10
128.975000
 20
221.575000
 10
129.200000
 20
221.600000
 10
129.475000
 20
221.525000
 10
129.625000
 20
221.300000
 10
129.625000
 20
220.750000
  0
LINE
  5
629
100
AcDbEntity
  8
0
370
    20
100
AcDbLine
 10
121.950000
 20
220.750000
 11
121.950000
 21
221.275000
  0
LINE
  5
62c
100
AcDbEntity
  8
0
370
    20
100
AcDbLine
 10
122.275000
 20
221.600000
 11
122.600000
 21
221.600000
  0
LINE
  5
62f
100
AcDbEntity
  8
0
370
    20
100
AcDbLine
 10
122.925000
 20
221.275000
 11
122.925000
 21
220.750000
  0
ARC
  5
632
100
AcDbEntity
  8
0
370
    20
100
AcDbCircle
 10
122.300000
 20
221.250000
 40
0.325000
100
AcDbArc
 50
90.000000
 51
180.000000
  0
ARC
  5
635
100
AcDbEntity
  8
0
370
    20
100
AcDbCircle
 10
122.575000
 20
221.250000
 40
0.325000
100
AcDbArc
 50
360.000000
 51
90.000000
  0
HATCH
  5
638
330
F6
100
AcDbEntity
  8
0
100
AcDbHatch
 10
0.0
 20
0.0
 30
0.0
210
0.0
220
0.0
230
1.0
  2
SOLID
 70
     1
 71
     0
 91
     1
 92
     7
 72
     0
 73
     1
 93
     8
 10
121.975000
 20
220.750000
 10
121.975000
 20
221.225000
 10
122.100000
 20
221.500000
 10
122.250000
 20
221.575000
 10
122.475000
 20
221.600000
 10
122.750000
 20
221.525000
 10
122.900000
 20
221.300000
 10
122.900000
 20
220.750000
 97
     1
330
63b
 75
     0
 76
     1
 47
0.651316
 98
     1
 10
0.0
 20
0.0
  0
LWPOLYLINE
  5
63b
330
F6
100
AcDbEntity
  8
0
100
AcDbPolyline
 90
     8
 70
     1
 43
0.200000
 10
121.975000
 20
220.750000
 10
121.975000
 20
221.225000
 10
122.100000
 20
221.500000
 10
122.250000
 20
221.575000
 10
122.475000
 20
221.600000
 10
122.750000
 20
221.525000
 10
122.900000
 20
221.300000
 10
122.900000
 20
220.750000
  0
HATCH
  5
64e
330
F6
100
AcDbEntity
  8
0
100
AcDbHatch
 10
0.0
 20
0.0
 30
0.0
210
0.0
220
0.0
230
1.0
  2
SOLID
 70
     1
 71
     0
 91
     1
 92
     7
 72
     0
 73
     1
 93
    54
 10
93.275000
 20
219.200000
 10
93.275000
 20
220.775000
 10
93.250000
 20
220.775000
 10
93.175000
 20
221.375000
 10
93.000000
 20
221.950000
 10
92.725000
 20
222.475000
 10
92.350000
 20
222.925000
 10
91.900000
 20
223.300000
 10
91.375000
 20
223.575000
 10
90.800000
 20
223.750000
 10
90.225000
 20
223.800000
 10
78.500000
 20
223.800000
 10
77.825000
 20
223.675000
 10
77.200000
 20
223.425000
 10
76.625000
 20
223.075000
 10
76.125000
 20
222.625000
 10
76.125000
 20
222.600000
 10
76.150000
 20
222.625000
 10
76.125000
 20
222.625000
 10
72.475000
 20
218.275000
 10
72.450000
 20
218.325000
 10
72.025000
 20
217.900000
 10
71.500000
 20
217.575000
 10
70.950000
 20
217.350000
 10
70.350000
 20
217.250000
 10
70.125000
 20
217.225000
 10
70.175000
 20
217.200000
 10
59.325000
 20
217.200000
 10
59.250000
 20
216.750000
 10
70.650000
 20
216.750000
 10
70.600000
 20
216.775000
 10
70.850000
 20
216.800000
 10
71.375000
 20
216.900000
 10
71.850000
 20
217.100000
 10
72.300000
 20
217.400000
 10
72.650000
 20
217.775000
 10
72.650000
 20
217.700000
 10
76.275000
 20
222.000000
 10
76.225000
 20
222.000000
 10
76.775000
 20
222.525000
 10
77.425000
 20
222.925000
 10
78.125000
 20
223.200000
 10
78.875000
 20
223.350000
 10
90.100000
 20
223.350000
 10
90.625000
 20
223.300000
 10
91.125000
 20
223.150000
 10
91.600000
 20
222.900000
 10
92.025000
 20
222.575000
 10
92.350000
 20
222.150000
 10
92.600000
 20
221.675000
 10
92.750000
 20
221.175000
 10
92.825000
 20
220.625000
 10
92.850000
 20
220.650000
 10
92.850000
 20
219.200000
 97
     1
330
651
 75
     0
 76
     1
 47
0.651316
 98
     1
 10
0.0
 20
0.0
  0
LWPOLYLINE
  5
651
330
F6
100
AcDbEntity
  8
0
100
AcDbPolyline
 90
    55
 70
     0
 43
0.200000
 10
93.275000
 20
219.200000
 10
93.275000
 20
220.775000
 10
93.250000
 20
220.775000
 10
93.175000
 20
221.375000
 10
93.000000
 20
221.950000
 10
92.725000
 20
222.475000
 10
92.350000
 20
222.925000
 10
91.900000
 20
223.300000
 10
91.375000
 20
223.575000
 10
90.800000
 20
223.750000
 10
90.225000
 20
223.800000
 10
78.500000
 20
223.800000
 10
77.825000
 20
223.675000
 10
77.200000
 20
223.425000
 10
76.625000
 20
223.075000
 10
76.125000
 20
222.625000
 10
76.125000
 20
222.600000
 10
76.150000
 20
222.625000
 10
76.125000
 20
222.625000
 10
72.475000
 20
218.275000
 10
72.450000
 20
218.325000
 10
72.025000
 20
217.900000
 10
71.500000
 20
217.575000
 10
70.950000
 20
217.350000
 10
70.350000
 20
217.250000
 10
70.125000
 20
217.225000
 10
70.175000
 20
217.200000
 10
59.325000
 20
217.200000
 10
59.250000
 20
216.750000
 10
70.650000
 20
216.750000
 10
70.600000
 20
216.775000
 10
70.850000
 20
216.800000
 10
71.375000
 20
216.900000
 10
71.850000
 20
217.100000
 10
72.300000
 20
217.400000
 10
72.650000
 20
217.775000
 10
72.650000
 20
217.700000
 10
76.275000
 20
222.000000
 10
76.225000
 20
222.000000
 10
76.775000
 20
222.525000
 10
77.425000
 20
222.925000
 10
78.125000
 20
223.200000
 10
78.875000
 20
223.350000
 10
90.100000
 20
223.350000
 10
90.625000
 20
223.300000
 10
91.125000
 20
223.150000
 10
91.600000
 20
222.900000
 10
92.025000
 20
222.575000
 10
92.350000
 20
222.150000
 10
92.600000
 20
221.675000
 10
92.750000
 20
221.175000
 10
92.825000
 20
220.625000
 10
92.850000
 20
220.650000
 10
92.850000
 20
219.200000
 10
93.275000
 20
219.200000
  0
LINE
  5
6c2
100
AcDbEntity
  8
0
370
    20
100
AcDbLine
 10
93.275000
 20
219.200000
 11
93.275000
 21
220.775000
  0
LINE
  5
6c5
100
AcDbEntity
  8
0
370
    20
100
AcDbLine
 10
90.250000
 20
223.800000
 11
78.775000
 21
223.800000
  0
LINE
  5
6c8
100
AcDbEntity
  8
0
370
    20
100
AcDbLine
 10
76.150000
 20
222.625000
 11
72.475000
 21
218.275000
  0
LINE
  5
6cb
100
AcDbEntity
  8
0
370
    20
100
AcDbLine
 10
70.175000
 20
217.200000
 11
59.325000
 21
217.200000
  0
ARC
  5
6ce
100
AcDbEntity
  8
0
370
    20
100
AcDbCircle
 10
70.125000
 20
220.300000
 40
3.075000
100
AcDbArc
 50
270.000000
 51
319.500000
  0
ARC
  5
6d1
100
AcDbEntity
  8
0
370
    20
100
AcDbCircle
 10
78.775000
 20
220.325000
 40
3.475000
100
AcDbArc
 50
90.000000
 51
139.375000
  0
ARC
  5
6d4
100
AcDbEntity
  8
0
370
    20
100
AcDbCircle
 10
90.225000
 20
220.775000
 40
3.025000
100
AcDbArc
 50
360.000000
 51
90.000000
  0
LINE
  5
6d7
100
AcDbEntity
  8
0
370
    20
100
AcDbLine
 10
59.250000
 20
216.750000
 11
70.650000
 21
216.750000
  0
LINE
  5
6da
100
AcDbEntity
  8
0
370
    20
100
AcDbLine
 10
72.650000
 20
217.700000
 11
76.275000
 21
222.000000
  0
LINE
  5
6dd
100
AcDbEntity
  8
0
370
    20
100
AcDbLine
 10
79.200000
 20
223.350000
 11
90.150000
 21
223.350000
  0
LINE
  5
6e0
100
AcDbEntity
  8
0
370
    20
100
AcDbLine
 10
92.850000
 20
220.650000
 11
92.850000
 21
219.200000
  0
ARC
  5
6e3
100
AcDbEntity
  8
0
370
    20
100
AcDbCircle
 10
70.600000
 20
219.450000
 40
2.675000
100
AcDbArc
 50
270.000000
 51
319.875000
  0
ARC
  5
6e6
100
AcDbEntity
  8
0
370
    20
100
AcDbCircle
 10
79.200000
 20
219.475000
 40
3.875000
100
AcDbArc
 50
90.000000
 51
139.750000
  0
ARC
  5
6e9
100
AcDbEntity
  8
0
370
    20
100
AcDbCircle
 10
90.100000
 20
220.625000
 40
2.725000
100
AcDbArc
 50
360.000000
 51
90.000000
  0
CIRCLE
  5
6ec
100
AcDbEntity
  8
0
370
    20
100
AcDbCircle
 10
86.050000
 20
217.700000
 40
0.275000
  0
CIRCLE
  5
6ef
100
AcDbEntity
  8
0
370
    20
100
AcDbCircle
 10
99.625000
 20
217.700000
 40
0.275000
  0
CIRCLE
  5
6f2
100
AcDbEntity
  8
0
370
    20
100
AcDbCircle
 10
86.050000
 20
211.600000
 40
0.275000
  0
CIRCLE
  5
6f5
100
AcDbEntity
  8
0
370
    20
100
AcDbCircle
 10
99.725000
 20
211.600000
 40
0.275000
  0
LWPOLYLINE
  5
6f8
100
AcDbEntity
  8
0
100
AcDbPolyline
 90
     4
 70
     1
 43
0.200000
 10
88.200000
 20
212.950000
 10
91.725000
 20
212.950000
 10
91.725000
 20
212.325000
 10
88.200000
 20
212.325000
  0
LWPOLYLINE
  5
703
100
AcDbEntity
  8
0
100
AcDbPolyline
 90
     4
 70
     1
 43
0.200000
 10
92.900000
 20
212.950000
 10
95.475000
 20
212.950000
 10
95.475000
 20
212.250000
 10
92.900000
 20
212.250000
  0
LWPOLYLINE
  5
70e
100
AcDbEntity
  8
0
100
AcDbPolyline
 90
     4
 70
     1
 43
0.200000
 10
97.200000
 20
212.950000
 10
97.900000
 20
212.950000
 10
97.900000
 20
212.250000
 10
97.200000
 20
212.250000
  0
CIRCLE
  5
719
100
AcDbEntity
  8
0
370
    20
100
AcDbCircle
 10
88.525000
 20
216.550000
 40
0.550000
  0
CIRCLE
  5
71c
100
AcDbEntity
  8
0
370
    20
100
AcDbCircle
 10
90.550000
 20
216.550000
 40
0.550000
  0
CIRCLE
  5
71f
100
AcDbEntity
  8
0
370
    20
100
AcDbCircle
 10
93.825000
 20
216.550000
 40
0.550000
  0
CIRCLE
  5
722
100
AcDbEntity
  8
0
370
    20
100
AcDbCircle
 10
95.625000
 20
216.550000
 40
0.550000
  0
CIRCLE
  5
725
100
AcDbEntity
  8
0
370
    20
100
AcDbCircle
 10
97.425000
 20
216.550000
 40
0.550000
  0
HATCH
  5
728
330
F6
100
AcDbEntity
  8
0
100
AcDbHatch
 10
0.0
 20
0.0
 30
0.0
210
0.0
220
0.0
230
1.0
  2
SOLID
 70
     1
 71
     0
 91
     1
 92
     7
 72
     0
 73
     1
 93
    26
 10
88.775000
 20
214.975000
 10
88.750000
 20
214.925000
 10
88.750000
 20
214.875000
 10
88.725000
 20
214.825000
 10
88.675000
 20
214.800000
 10
88.650000
 20
214.750000
 10
88.600000
 20
214.725000
 10
88.550000
 20
214.725000
 10
88.500000
 20
214.700000
 10
88.425000
 20
214.725000
 10
88.375000
 20
214.725000
 10
88.325000
 20
214.750000
 10
88.300000
 20
214.800000
 10
88.250000
 20
214.825000
 10
88.225000
 20
214.875000
 10
88.225000
 20
215.100000
 10
88.250000
 20
215.150000
 10
88.300000
 20
215.175000
 10
88.325000
 20
215.225000
 10
88.375000
 20
215.250000
 10
88.600000
 20
215.250000
 10
88.650000
 20
215.225000
 10
88.675000
 20
215.175000
 10
88.725000
 20
215.150000
 10
88.750000
 20
215.100000
 10
88.750000
 20
215.050000
 97
     1
330
72b
 75
     0
 76
     1
 47
0.651316
 98
     1
 10
0.0
 20
0.0
  0
LWPOLYLINE
  5
72b
330
F6
100
AcDbEntity
  8
0
100
AcDbPolyline
 90
    27
 70
     0
 43
0.200000
 10
88.775000
 20
214.975000
 10
88.750000
 20
214.925000
 10
88.750000
 20
214.875000
 10
88.725000
 20
214.825000
 10
88.675000
 20
214.800000
 10
88.650000
 20
214.750000
 10
88.600000
 20
214.725000
 10
88.550000
 20
214.725000
 10
88.500000
 20
214.700000
 10
88.425000
 20
214.725000
 10
88.375000
 20
214.725000
 10
88.325000
 20
214.750000
 10
88.300000
 20
214.800000
 10
88.250000
 20
214.825000
 10
88.225000
 20
214.875000
 10
88.225000
 20
215.100000
 10
88.250000
 20
215.150000
 10
88.300000
 20
215.175000
 10
88.325000
 20
215.225000
 10
88.375000
 20
215.250000
 10
88.600000
 20
215.250000
 10
88.650000
 20
215.225000
 10
88.675000
 20
215.175000
 10
88.725000
 20
215.150000
 10
88.750000
 20
215.100000
 10
88.750000
 20
215.050000
 10
88.775000
 20
214.975000
  0
CIRCLE
  5
764
100
AcDbEntity
  8
0
370
    20
100
AcDbCircle
 10
88.500000
 20
214.975000
 40
0.275000
  0
HATCH
  5
767
330
F6
100
AcDbEntity
  8
0
100
AcDbHatch
 10
0.0
 20
0.0
 30
0.0
210
0.0
220
0.0
230
1.0
  2
SOLID
 70
     1
 71
     0
 91
     1
 92
     7
 72
     0
 73
     1
 93
    26
 10
90.775000
 20
214.975000
 10
90.750000
 20
214.925000
 10
90.750000
 20
214.875000
 10
90.725000
 20
214.825000
 10
90.675000
 20
214.800000
 10
90.650000
 20
214.750000
 10
90.600000
 20
214.725000
 10
90.550000
 20
214.725000
 10
90.500000
 20
214.700000
 10
90.425000
 20
214.725000
 10
90.375000
 20
214.725000
 10
90.325000
 20
214.750000
 10
90.300000
 20
214.800000
 10
90.250000
 20
214.825000
 10
90.225000
 20
214.875000
 10
90.225000
 20
215.100000
 10
90.250000
 20
215.150000
 10
90.300000
 20
215.175000
 10
90.325000
 20
215.225000
 10
90.375000
 20
215.250000
 10
90.600000
 20
215.250000
 10
90.650000
 20
215.225000
 10
90.675000
 20
215.175000
 10
90.725000
 20
215.150000
 10
90.750000
 20
215.100000
 10
90.750000
 20
215.050000
 97
     1
330
76a
 75
     0
 76
     1
 47
0.651316
 98
     1
 10
0.0
 20
0.0
  0
LWPOLYLINE
  5
76a
330
F6
100
AcDbEntity
  8
0
100
AcDbPolyline
 90
    27
 70
     0
 43
0.200000
 10
90.775000
 20
214.975000
 10
90.750000
 20
214.925000
 10
90.750000
 20
214.875000
 10
90.725000
 20
214.825000
 10
90.675000
 20
214.800000
 10
90.650000
 20
214.750000
 10
90.600000
 20
214.725000
 10
90.550000
 20
214.725000
 10
90.500000
 20
214.700000
 10
90.425000
 20
214.725000
 10
90.375000
 20
214.725000
 10
90.325000
 20
214.750000
 10
90.300000
 20
214.800000
 10
90.250000
 20
214.825000
 10
90.225000
 20
214.875000
 10
90.225000
 20
215.100000
 10
90.250000
 20
215.150000
 10
90.300000
 20
215.175000
 10
90.325000
 20
215.225000
 10
90.375000
 20
215.250000
 10
90.600000
 20
215.250000
 10
90.650000
 20
215.225000
 10
90.675000
 20
215.175000
 10
90.725000
 20
215.150000
 10
90.750000
 20
215.100000
 10
90.750000
 20
215.050000
 10
90.775000
 20
214.975000
  0
CIRCLE
  5
7a3
100
AcDbEntity
  8
0
370
    20
100
AcDbCircle
 10
90.500000
 20
214.975000
 40
0.275000
  0
HATCH
  5
7a6
330
F6
100
AcDbEntity
  8
0
100
AcDbHatch
 10
0.0
 20
0.0
 30
0.0
210
0.0
220
0.0
230
1.0
  2
SOLID
 70
     1
 71
     0
 91
     1
 92
     7
 72
     0
 73
     1
 93
    26
 10
94.150000
 20
214.975000
 10
94.125000
 20
214.925000
 10
94.125000
 20
214.875000
 10
94.100000
 20
214.825000
 10
94.050000
 20
214.800000
 10
94.025000
 20
214.750000
 10
93.975000
 20
214.725000
 10
93.925000
 20
214.725000
 10
93.875000
 20
214.700000
 10
93.800000
 20
214.725000
 10
93.750000
 20
214.725000
 10
93.700000
 20
214.750000
 10
93.675000
 20
214.800000
 10
93.625000
 20
214.825000
 10
93.600000
 20
214.875000
 10
93.600000
 20
215.100000
 10
93.625000
 20
215.150000
 10
93.675000
 20
215.175000
 10
93.700000
 20
215.225000
 10
93.750000
 20
215.250000
 10
93.975000
 20
215.250000
 10
94.025000
 20
215.225000
 10
94.050000
 20
215.175000
 10
94.100000
 20
215.150000
 10
94.125000
 20
215.100000
 10
94.125000
 20
215.050000
 97
     1
330
7a9
 75
     0
 76
     1
 47
0.651316
 98
     1
 10
0.0
 20
0.0
  0
LWPOLYLINE
  5
7a9
330
F6
100
AcDbEntity
  8
0
100
AcDbPolyline
 90
    27
 70
     0
 43
0.200000
 10
94.150000
 20
214.975000
 10
94.125000
 20
214.925000
 10
94.125000
 20
214.875000
 10
94.100000
 20
214.825000
 10
94.050000
 20
214.800000
 10
94.025000
 20
214.750000
 10
93.975000
 20
214.725000
 10
93.925000
 20
214.725000
 10
93.875000
 20
214.700000
 10
93.800000
 20
214.725000
 10
93.750000
 20
214.725000
 10
93.700000
 20
214.750000
 10
93.675000
 20
214.800000
 10
93.625000
 20
214.825000
 10
93.600000
 20
214.875000
 10
93.600000
 20
215.100000
 10
93.625000
 20
215.150000
 10
93.675000
 20
215.175000
 10
93.700000
 20
215.225000
 10
93.750000
 20
215.250000
 10
93.975000
 20
215.250000
 10
94.025000
 20
215.225000
 10
94.050000
 20
215.175000
 10
94.100000
 20
215.150000
 10
94.125000
 20
215.100000
 10
94.125000
 20
215.050000
 10
94.150000
 20
214.975000
  0
CIRCLE
  5
7e2
100
AcDbEntity
  8
0
370
    20
100
AcDbCircle
 10
93.875000
 20
214.975000
 40
0.275000
  0
HATCH
  5
7e5
330
F6
100
AcDbEntity
  8
0
100
AcDbHatch
 10
0.0
 20
0.0
 30
0.0
210
0.0
220
0.0
230
1.0
  2
SOLID
 70
     1
 71
     0
 91
     1
 92
     7
 72
     0
 73
     1
 93
    26
 10
95.900000
 20
214.975000
 10
95.875000
 20
214.925000
 10
95.875000
 20
214.875000
 10
95.850000
 20
214.825000
 10
95.800000
 20
214.800000
 10
95.775000
 20
214.750000
 10
95.725000
 20
214.725000
 10
95.675000
 20
214.725000
 10
95.625000
 20
214.700000
 10
95.550000
 20
214.725000
 10
95.500000
 20
214.725000
 10
95.450000
 20
214.750000
 10
95.425000
 20
214.800000
 10
95.375000
 20
214.825000
 10
95.350000
 20
214.875000
 10
95.350000
 20
215.100000
 10
95.375000
 20
215.150000
 10
95.425000
 20
215.175000
 10
95.450000
 20
215.225000
 10
95.500000
 20
215.250000
 10
95.725000
 20
215.250000
 10
95.775000
 20
215.225000
 10
95.800000
 20
215.175000
 10
95.850000
 20
215.150000
 10
95.875000
 20
215.100000
 10
95.875000
 20
215.050000
 97
     1
330
7e8
 75
     0
 76
     1
 47
0.651316
 98
     1
 10
0.0
 20
0.0
  0
LWPOLYLINE
  5
7e8
330
F6
100
AcDbEntity
  8
0
100
AcDbPolyline
 90
    27
 70
     0
 43
0.200000
 10
95.900000
 20
214.975000
 10
95.875000
 20
214.925000
 10
95.875000
 20
214.875000
 10
95.850000
 20
214.825000
 10
95.800000
 20
214.800000
 10
95.775000
 20
214.750000
 10
95.725000
 20
214.725000
 10
95.675000
 20
214.725000
 10
95.625000
 20
214.700000
 10
95.550000
 20
214.725000
 10
95.500000
 20
214.725000
 10
95.450000
 20
214.750000
 10
95.425000
 20
214.800000
 10
95.375000
 20
214.825000
 10
95.350000
 20
214.875000
 10
95.350000
 20
215.100000
 10
95.375000
 20
215.150000
 10
95.425000
 20
215.175000
 10
95.450000
 20
215.225000
 10
95.500000
 20
215.250000
 10
95.725000
 20
215.250000
 10
95.775000
 20
215.225000
 10
95.800000
 20
215.175000
 10
95.850000
 20
215.150000
 10
95.875000
 20
215.100000
 10
95.875000
 20
215.050000
 10
95.900000
 20
214.975000
  0
CIRCLE
  5
821
100
AcDbEntity
  8
0
370
    20
100
AcDbCircle
 10
95.625000
 20
214.975000
 40
0.275000
  0
HATCH
  5
824
330
F6
100
AcDbEntity
  8
0
100
AcDbHatch
 10
0.0
 20
0.0
 30
0.0
210
0.0
220
0.0
230
1.0
  2
SOLID
 70
     1
 71
     0
 91
     1
 92
     7
 72
     0
 73
     1
 93
    26
 10
97.700000
 20
214.975000
 10
97.675000
 20
214.925000
 10
97.675000
 20
214.875000
 10
97.650000
 20
214.825000
 10
97.600000
 20
214.800000
 10
97.575000
 20
214.750000
 10
97.525000
 20
214.725000
 10
97.475000
 20
214.725000
 10
97.425000
 20
214.700000
 10
97.350000
 20
214.725000
 10
97.300000
 20
214.725000
 10
97.250000
 20
214.750000
 10
97.225000
 20
214.800000
 10
97.175000
 20
214.825000
 10
97.150000
 20
214.875000
 10
97.150000
 20
215.100000
 10
97.175000
 20
215.150000
 10
97.225000
 20
215.175000
 10
97.250000
 20
215.225000
 10
97.300000
 20
215.250000
 10
97.525000
 20
215.250000
 10
97.575000
 20
215.225000
 10
97.600000
 20
215.175000
 10
97.650000
 20
215.150000
 10
97.675000
 20
215.100000
 10
97.675000
 20
215.050000
 97
     1
330
827
 75
     0
 76
     1
 47
0.651316
 98
     1
 10
0.0
 20
0.0
  0
LWPOLYLINE
  5
827
330
F6
100
AcDbEntity
  8
0
100
AcDbPolyline
 90
    27
 70
     0
 43
0.200000
 10
97.700000
 20
214.975000
 10
97.675000
 20
214.925000
 10
97.675000
 20
214.875000
 10
97.650000
 20
214.825000
 10
97.600000
 20
214.800000
 10
97.575000
 20
214.750000
 10
97.525000
 20
214.725000
 10
97.475000
 20
214.725000
 10
97.425000
 20
214.700000
 10
97.350000
 20
214.725000
 10
97.300000
 20
214.725000
 10
97.250000
 20
214.750000
 10
97.225000
 20
214.800000
 10
97.175000
 20
214.825000
 10
97.150000
 20
214.875000
 10
97.150000
 20
215.100000
 10
97.175000
 20
215.150000
 10
97.225000
 20
215.175000
 10
97.250000
 20
215.225000
 10
97.300000
 20
215.250000
 10
97.525000
 20
215.250000
 10
97.575000
 20
215.225000
 10
97.600000
 20
215.175000
 10
97.650000
 20
215.150000
 10
97.675000
 20
215.100000
 10
97.675000
 20
215.050000
 10
97.700000
 20
214.975000
  0
CIRCLE
  5
860
100
AcDbEntity
  8
0
370
    20
100
AcDbCircle
 10
97.425000
 20
214.975000
 40
0.275000
  0
HATCH
  5
863
330
F6
100
AcDbEntity
  8
0
100
AcDbHatch
 10
0.0
 20
0.0
 30
0.0
210
0.0
220
0.0
230
1.0
  2
SOLID
 70
     1
 71
     0
 91
     1
 92
     7
 72
     0
 73
     1
 93
    26
 10
92.300000
 20
214.975000
 10
92.275000
 20
214.925000
 10
92.275000
 20
214.875000
 10
92.250000
 20
214.825000
 10
92.200000
 20
214.800000
 10
92.175000
 20
214.750000
 10
92.125000
 20
214.725000
 10
92.075000
 20
214.725000
 10
92.025000
 20
214.700000
 10
91.950000
 20
214.725000
 10
91.900000
 20
214.725000
 10
91.850000
 20
214.750000
 10
91.825000
 20
214.800000
 10
91.775000
 20
214.825000
 10
91.750000
 20
214.875000
 10
91.750000
 20
215.100000
 10
91.775000
 20
215.150000
 10
91.825000
 20
215.175000
 10
91.850000
 20
215.225000
 10
91.900000
 20
215.250000
 10
92.125000
 20
215.250000
 10
92.175000
 20
215.225000
 10
92.200000
 20
215.175000
 10
92.250000
 20
215.150000
 10
92.275000
 20
215.100000
 10
92.275000
 20
215.050000
 97
     1
330
866
 75
     0
 76
     1
 47
0.651316
 98
     1
 10
0.0
 20
0.0
  0
LWPOLYLINE
  5
866
330
F6
100
AcDbEntity
  8
0
100
AcDbPolyline
 90
    27
 70
     0
 43
0.200000
 10
92.300000
 20
214.975000
 10
92.275000
 20
214.925000
 10
92.275000
 20
214.875000
 10
92.250000
 20
214.825000
 10
92.200000
 20
214.800000
 10
92.175000
 20
214.750000
 10
92.125000
 20
214.725000
 10
92.075000
 20
214.725000
 10
92.025000
 20
214.700000
 10
91.950000
 20
214.725000
 10
91.900000
 20
214.725000
 10
91.850000
 20
214.750000
 10
91.825000
 20
214.800000
 10
91.775000
 20
214.825000
 10
91.750000
 20
214.875000
 10
91.750000
 20
215.100000
 10
91.775000
 20
215.150000
 10
91.825000
 20
215.175000
 10
91.850000
 20
215.225000
 10
91.900000
 20
215.250000
 10
92.125000
 20
215.250000
 10
92.175000
 20
215.225000
 10
92.200000
 20
215.175000
 10
92.250000
 20
215.150000
 10
92.275000
 20
215.100000
 10
92.275000
 20
215.050000
 10
92.300000
 20
214.975000
  0
CIRCLE
  5
89f
100
AcDbEntity
  8
0
370
    20
100
AcDbCircle
 10
92.025000
 20
214.975000
 40
0.275000
  0
HATCH
  5
8a2
330
F6
100
AcDbEntity
  8
0
100
AcDbHatch
 10
0.0
 20
0.0
 30
0.0
210
0.0
220
0.0
230
1.0
  2
SOLID
 70
     1
 71
     0
 91
     1
 92
     7
 72
     0
 73
     1
 93
    26
 10
93.125000
 20
214.975000
 10
93.100000
 20
214.925000
 10
93.100000
 20
214.875000
 10
93.075000
 20
214.825000
 10
93.025000
 20
214.800000
 10
93.000000
 20
214.750000
 10
92.950000
 20
214.725000
 10
92.900000
 20
214.725000
 10
92.850000
 20
214.700000
 10
92.775000
 20
214.725000
 10
92.725000
 20
214.725000
 10
92.675000
 20
214.750000
 10
92.650000
 20
214.800000
 10
92.600000
 20
214.825000
 10
92.575000
 20
214.875000
 10
92.575000
 20
215.100000
 10
92.600000
 20
215.150000
 10
92.650000
 20
215.175000
 10
92.675000
 20
215.225000
 10
92.725000
 20
215.250000
 10
92.950000
 20
215.250000
 10
93.000000
 20
215.225000
 10
93.025000
 20
215.175000
 10
93.075000
 20
215.150000
 10
93.100000
 20
215.100000
 10
93.100000
 20
215.050000
 97
     1
330
8a5
 75
     0
 76
     1
 47
0.651316
 98
     1
 10
0.0
 20
0.0
  0
LWPOLYLINE
  5
8a5
330
F6
100
AcDbEntity
  8
0
100
AcDbPolyline
 90
    27
 70
     0
 43
0.200000
 10
93.125000
 20
214.975000
 10
93.100000
 20
214.925000
 10
93.100000
 20
214.875000
 10
93.075000
 20
214.825000
 10
93.025000
 20
214.800000
 10
93.000000
 20
214.750000
 10
92.950000
 20
214.725000
 10
92.900000
 20
214.725000
 10
92.850000
 20
214.700000
 10
92.775000
 20
214.725000
 10
92.725000
 20
214.725000
 10
92.675000
 20
214.750000
 10
92.650000
 20
214.800000
 10
92.600000
 20
214.825000
 10
92.575000
 20
214.875000
 10
92.575000
 20
215.100000
 10
92.600000
 20
215.150000
 10
92.650000
 20
215.175000
 10
92.675000
 20
215.225000
 10
92.725000
 20
215.250000
 10
92.950000
 20
215.250000
 10
93.000000
 20
215.225000
 10
93.025000
 20
215.175000
 10
93.075000
 20
215.150000
 10
93.100000
 20
215.100000
 10
93.100000
 20
215.050000
 10
93.125000
 20
214.975000
  0
CIRCLE
  5
8de
100
AcDbEntity
  8
0
370
    20
100
AcDbCircle
 10
92.850000
 20
214.975000
 40
0.275000
  0
HATCH
  5
8e1
330
F6
100
AcDbEntity
  8
0
100
AcDbHatch
 10
0.0
 20
0.0
 30
0.0
210
0.0
220
0.0
230
1.0
  2
SOLID
 70
     1
 71
     0
 91
     1
 92
     7
 72
     0
 73
     1
 93
    26
 10
96.675000
 20
212.625000
 10
96.650000
 20
212.575000
 10
96.650000
 20
212.525000
 10
96.625000
 20
212.475000
 10
96.575000
 20
212.450000
 10
96.550000
 20
212.400000
 10
96.500000
 20
212.375000
 10
96.450000
 20
212.375000
 10
96.400000
 20
212.350000
 10
96.325000
 20
212.375000
 10
96.275000
 20
212.375000
 10
96.225000
 20
212.400000
 10
96.200000
 20
212.450000
 10
96.150000
 20
212.475000
 10
96.125000
 20
212.525000
 10
96.125000
 20
212.750000
 10
96.150000
 20
212.800000
 10
96.200000
 20
212.825000
 10
96.225000
 20
212.875000
 10
96.275000
 20
212.900000
 10
96.500000
 20
212.900000
 10
96.550000
 20
212.875000
 10
96.575000
 20
212.825000
 10
96.625000
 20
212.800000
 10
96.650000
 20
212.750000
 10
96.650000
 20
212.700000
 97
     1
330
8e4
 75
     0
 76
     1
 47
0.651316
 98
     1
 10
0.0
 20
0.0
  0
LWPOLYLINE
  5
8e4
330
F6
100
AcDbEntity
  8
0
100
AcDbPolyline
 90
    27
 70
     0
 43
0.200000
 10
96.675000
 20
212.625000
 10
96.650000
 20
212.575000
 10
96.650000
 20
212.525000
 10
96.625000
 20
212.475000
 10
96.575000
 20
212.450000
 10
96.550000
 20
212.400000
 10
96.500000
 20
212.375000
 10
96.450000
 20
212.375000
 10
96.400000
 20
212.350000
 10
96.325000
 20
212.375000
 10
96.275000
 20
212.375000
 10
96.225000
 20
212.400000
 10
96.200000
 20
212.450000
 10
96.150000
 20
212.475000
 10
96.125000
 20
212.525000
 10
96.125000
 20
212.750000
 10
96.150000
 20
212.800000
 10
96.200000
 20
212.825000
 10
96.225000
 20
212.875000
 10
96.275000
 20
212.900000
 10
96.500000
 20
212.900000
 10
96.550000
 20
212.875000
 10
96.575000
 20
212.825000
 10
96.625000
 20
212.800000
 10
96.650000
 20
212.750000
 10
96.650000
 20
212.700000
 10
96.675000
 20
212.625000
  0
CIRCLE
  5
91d
100
AcDbEntity
  8
0
370
    20
100
AcDbCircle
 10
96.400000
 20
212.625000
 40
0.275000
  0
LINE
  5
920
100
AcDbEntity
  8
0
370
    20
100
AcDbLine
 10
47.350000
 20
60.725000
 11
46.175000
 21
60.725000
  0
LINE
  5
923
100
AcDbEntity
  8
0
370
    20
100
AcDbLine
 10
46.175000
 20
172.400000
 11
46.175000
 21
60.725000
  0
LINE
  5
926
100
AcDbEntity
  8
0
370
    20
100
AcDbLine
 10
53.900000
 20
172.400000
 11
53.900000
 21
60.725000
  0
LINE
  5
929
100
AcDbEntity
  8
0
370
    20
100
AcDbLine
 10
53.900000
 20
60.725000
 11
52.750000
 21
60.725000
  0
LINE
  5
92c
100
AcDbEntity
  8
0
370
    20
100
AcDbLine
 10
98.725000
 20
55.275000
 11
98.725000
 21
177.775000
  0
LINE
  5
92f
100
AcDbEntity
  8
0
370
    20
100
AcDbLine
 10
121.300000
 20
178.650000
 11
121.300000
 21
54.475000
  0
LINE
  5
932
100
AcDbEntity
  8
0
370
    20
100
AcDbLine
 10
119.500000
 20
173.425000
 11
119.500000
 21
57.175000
  0
LWPOLYLINE
  5
935
100
AcDbEntity
  8
0
100
AcDbPolyline
 90
     4
 70
     0
 43
0.200000
 10
102.500000
 20
57.000000
 10
102.500000
 20
54.625000
 10
117.500000
 20
54.625000
 10
117.500000
 20
57.000000
  0
LINE
  5
940
100
AcDbEntity
  8
0
370
    20
100
AcDbLine
 10
100.950000
 20
64.500000
 11
119.375000
 21
64.500000
  0
LINE
  5
943
100
AcDbEntity
  8
0
370
    20
100
AcDbLine
 10
119.525000
 20
144.825000
 11
101.100000
 21
144.825000
  0
LINE
  5
946
100
AcDbEntity
  8
0
370
    20
100
AcDbLine
 10
109.375000
 20
153.575000
 11
109.375000
 21
161.150000
  0
LINE
  5
949
100
AcDbEntity
  8
0
370
    20
100
AcDbLine
 10
108.000000
 20
153.575000
 11
108.000000
 21
161.150000
  0
LINE
  5
94c
100
AcDbEntity
  8
0
370
    20
100
AcDbLine
 10
119.525000
 20
153.575000
 11
101.100000
 21
153.575000
  0
LINE
  5
94f
100
AcDbEntity
  8
0
370
    20
100
AcDbLine
 10
108.000000
 20
161.150000
 11
103.775000
 21
173.025000
  0
LWPOLYLINE
  5
952
100
AcDbEntity
  8
0
100
AcDbPolyline
 90
     3
 70
     0
 43
0.200000
 10
103.475000
 20
173.900000
 10
102.975000
 20
175.375000
 10
102.975000
 20
182.100000
  0
LINE
  5
95b
100
AcDbEntity
  8
0
370
    20
100
AcDbLine
 10
109.375000
 20
161.150000
 11
105.050000
 21
173.025000
  0
LWPOLYLINE
  5
95e
100
AcDbEntity
  8
0
100
AcDbPolyline
 90
     3
 70
     0
 43
0.200000
 10
104.750000
 20
173.900000
 10
104.225000
 20
175.375000
 10
104.225000
 20
183.025000
  0
LINE
  5
967
100
AcDbEntity
  8
0
370
    20
100
AcDbLine
 10
113.325000
 20
161.150000
 11
116.750000
 21
173.025000
  0
LWPOLYLINE
  5
96a
100
AcDbEntity
  8
0
100
AcDbPolyline
 90
     4
 70
     0
 43
0.200000
 10
117.000000
 20
173.900000
 10
117.350000
 20
175.050000
 10
117.350000
 20
179.425000
 10
117.350000
 20
182.400000
  0
LINE
  5
975
100
AcDbEntity
  8
0
370
    20
100
AcDbLine
 10
114.700000
 20
161.150000
 11
118.125000
 21
173.025000
  0
LWPOLYLINE
  5
978
100
AcDbEntity
  8
0
100
AcDbPolyline
 90
     3
 70
     0
 43
0.200000
 10
118.400000
 20
173.900000
 10
118.750000
 20
175.050000
 10
118.750000
 20
181.300000
  0
LINE
  5
981
100
AcDbEntity
  8
0
370
    20
100
AcDbLine
 10
113.325000
 20
161.150000
 11
116.750000
 21
173.025000
  0
LINE
  5
984
100
AcDbEntity
  8
0
370
    20
100
AcDbLine
 10
117.000000
 20
173.900000
 11
117.350000
 21
175.050000
  0
LINE
  5
987
100
AcDbEntity
  8
0
370
    20
100
AcDbLine
 10
113.325000
 20
161.150000
 11
116.750000
 21
173.025000
  0
LINE
  5
98a
100
AcDbEntity
  8
0
370
    20
100
AcDbLine
 10
117.000000
 20
173.900000
 11
117.350000
 21
175.050000
  0
LINE
  5
98d
100
AcDbEntity
  8
0
370
    20
100
AcDbLine
 10
113.325000
 20
161.150000
 11
116.750000
 21
173.025000
  0
LINE
  5
990
100
AcDbEntity
  8
0
370
    20
100
AcDbLine
 10
117.000000
 20
173.900000
 11
117.350000
 21
175.050000
  0
LINE
  5
993
100
AcDbEntity
  8
0
370
    20
100
AcDbLine
 10
119.525000
 20
130.450000
 11
101.100000
 21
130.450000
  0
HATCH
  5
996
330
F6
100
AcDbEntity
  8
0
100
AcDbHatch
 10
0.0
 20
0.0
 30
0.0
210
0.0
220
0.0
230
1.0
  2
SOLID
 70
     1
 71
     0
 91
     1
 92
     7
 72
     0
 73
     1
 93
     4
 10
113.325000
 20
161.150000
 10
116.750000
 20
173.025000
 10
118.125000
 20
173.025000
 10
114.700000
 20
161.150000
 97
     1
330
999
 75
     0
 76
     1
 47
0.651316
 98
     1
 10
0.0
 20
0.0
  0
LWPOLYLINE
  5
999
330
F6
100
AcDbEntity
  8
0
100
AcDbPolyline
 90
     4
 70
     1
 43
0.200000
 10
113.325000
 20
161.150000
 10
116.750000
 20
173.025000
 10
118.125000
 20
173.025000
 10
114.700000
 20
161.150000
  0
HATCH
  5
9a4
330
F6
100
AcDbEntity
  8
0
100
AcDbHatch
 10
0.0
 20
0.0
 30
0.0
210
0.0
220
0.0
230
1.0
  2
SOLID
 70
     1
 71
     0
 91
     1
 92
     7
 72
     0
 73
     1
 93
     6
 10
117.000000
 20
173.900000
 10
117.350000
 20
175.050000
 10
117.350000
 20
182.400000
 10
118.750000
 20
181.300000
 10
118.750000
 20
175.050000
 10
118.400000
 20
173.900000
 97
     1
330
9a7
 75
     0
 76
     1
 47
0.651316
 98
     1
 10
0.0
 20
0.0
  0
LWPOLYLINE
  5
9a7
330
F6
100
AcDbEntity
  8
0
100
AcDbPolyline
 90
     6
 70
     1
 43
0.200000
 10
117.000000
 20
173.900000
 10
117.350000
 20
175.050000
 10
117.350000
 20
182.400000
 10
118.750000
 20
181.300000
 10
118.750000
 20
175.050000
 10
118.400000
 20
173.900000
  0
SPLINE
  5
9b6
100
AcDbEntity
  8
0
370
    20
100
AcDbSpline
210
0.000000
220
0.000000
230
1.000000
 70
     9
 71
     3
 72
    26
 73
    22
 74
     0
 42
0.0000001
 43
0.0000001
 44
0.0000000001
 40
0.000000
 40
0.000000
 40
0.000000
 40
0.000000
 40
6.512920
 40
6.512920
 40
6.512920
 40
14.537920
 40
14.537920
 40
14.537920
 40
20.285365
 40
20.285365
 40
20.285365
 40
39.483884
 40
39.483884
 40
39.483884
 40
53.352846
 40
53.352846
 40
53.352846
 40
64.596734
 40
64.596734
 40
64.596734
 40
71.977833
 40
71.977833
 40
71.977833
 40
71.977833
 10
102.500000
 20
104.425000
 30
0.000000
 10
103.175000
 20
106.525000
 30
0.000000
 10
104.300000
 20
108.850000
 30
0.000000
 10
106.250000
 20
109.750000
 30
0.000000
 10
108.225000
 20
110.625000
 30
0.000000
 10
112.250000
 20
110.400000
 30
0.000000
 10
114.275000
 20
109.750000
 30
0.000000
 10
116.325000
 20
109.075000
 30
0.000000
 10
117.925000
 20
109.650000
 30
0.000000
 10
118.450000
 20
105.800000
 30
0.000000
 10
119.000000
 20
101.925000
 30
0.000000
 10
119.975000
 20
89.925000
 30
0.000000
 10
117.500000
 20
86.625000
 30
0.000000
 10
115.050000
 20
83.300000
 30
0.000000
 10
106.200000
 20
84.150000
 30
0.000000
 10
103.650000
 20
85.900000
 30
0.000000
 10
101.100000
 20
87.625000
 30
0.000000
 10
102.400000
 20
93.950000
 30
0.000000
 10
102.200000
 20
97.050000
 30
0.000000
 10
102.025000
 20
100.125000
 30
0.000000
 10
101.825000
 20
102.300000
 30
0.000000
 10
102.500000
 20
104.425000
 30
0.000000
  0
LWPOLYLINE
  5
9b9
100
AcDbEntity
  8
0
100
AcDbPolyline
 90
     4
 70
     0
 43
0.200000
 10
110.275000
 20
101.000000
 10
112.175000
 20
104.250000
 10
113.350000
 20
103.575000
 10
111.050000
 20
99.650000
  0
LWPOLYLINE
  5
9c4
100
AcDbEntity
  8
0
100
AcDbPolyline
 90
     4
 70
     0
 43
0.200000
 10
110.350000
 20
98.400000
 10
104.575000
 20
88.375000
 10
103.400000
 20
89.050000
 10
109.600000
 20
99.800000
  0
LINE
  5
9cf
100
AcDbEntity
  8
0
370
    20
100
AcDbLine
 10
103.550000
 20
89.300000
 11
103.300000
 21
89.800000
  0
LINE
  5
9d2
100
AcDbEntity
  8
0
370
    20
100
AcDbLine
 10
103.625000
 20
90.375000
 11
104.175000
 21
90.375000
  0
CIRCLE
  5
9d5
100
AcDbEntity
  8
0
370
    20
100
AcDbCircle
 10
112.225000
 20
103.050000
 40
0.350000
  0
CIRCLE
  5
9d8
100
AcDbEntity
  8
0
370
    20
100
AcDbCircle
 10
110.400000
 20
99.600000
 40
0.350000
  0
ARC
  5
9db
100
AcDbEntity
  8
0
370
    20
100
AcDbCircle
 10
103.675000
 20
89.975000
 40
0.400000
100
AcDbArc
 50
92.500000
 51
207.000000
  0
LINE
  5
9de
100
AcDbEntity
  8
0
370
    20
100
AcDbLine
 10
103.225000
 20
105.900000
 11
103.225000
 21
86.625000
  0
LINE
  5
9e1
100
AcDbEntity
  8
0
370
    20
100
AcDbLine
 10
117.400000
 20
107.975000
 11
117.400000
 21
86.925000
  0
LWPOLYLINE
  5
9e4
100
AcDbEntity
  8
0
100
AcDbPolyline
 90
     4
 70
     1
 43
0.200000
 10
117.250000
 20
89.050000
 10
108.475000
 20
104.250000
 10
107.300000
 20
103.575000
 10
116.075000
 20
88.375000
  0
LINE
  5
9ef
100
AcDbEntity
  8
0
370
    20
100
AcDbLine
 10
117.100000
 20
89.300000
 11
117.350000
 21
89.800000
  0
LINE
  5
9f2
100
AcDbEntity
  8
0
370
    20
100
AcDbLine
 10
117.025000
 20
90.375000
 11
116.475000
 21
90.375000
  0
CIRCLE
  5
9f5
100
AcDbEntity
  8
0
370
    20
100
AcDbCircle
 10
108.425000
 20
103.050000
 40
0.350000
  0
ARC
  5
9f8
100
AcDbEntity
  8
0
370
    20
100
AcDbCircle
 10
116.975000
 20
89.975000
 40
0.400000
100
AcDbArc
 50
333.000000
 51
87.500000
  0
LINE
  5
9fb
100
AcDbEntity
  8
0
370
    20
100
AcDbLine
 10
107.925000
 20
104.225000
 11
107.925000
 21
109.950000
  0
LINE
  5
9fe
100
AcDbEntity
  8
0
370
    20
100
AcDbLine
 10
112.700000
 20
104.225000
 11
112.700000
 21
109.750000
  0
LINE
  5
a01
100
AcDbEntity
  8
0
370
    20
100
AcDbLine
 10
107.925000
 20
101.825000
 11
107.925000
 21
97.250000
  0
LINE
  5
a04
100
AcDbEntity
  8
0
370
    20
100
AcDbLine
 10
112.700000
 20
101.825000
 11
112.700000
 21
97.350000
  0
LWPOLYLINE
  5
a07
100
AcDbEntity
  8
0
100
AcDbPolyline
 90
     4
 70
     0
 43
0.200000
 10
107.925000
 20
93.800000
 10
107.925000
 20
93.400000
 10
112.700000
 20
93.400000
 10
112.700000
 20
93.925000
  0
LINE
  5
a12
100
AcDbEntity
  8
0
370
    20
100
AcDbLine
 10
109.575000
 20
110.050000
 11
109.575000
 21
102.875000
  0
LINE
  5
a15
100
AcDbEntity
  8
0
370
    20
100
AcDbLine
 10
111.150000
 20
102.875000
 11
111.150000
 21
109.950000
  0
LWPOLYLINE
  5
a18
100
AcDbEntity
  8
0
100
AcDbPolyline
 90
     3
 70
     0
 43
0.200000
 10
109.700000
 20
96.625000
 10
110.850000
 20
96.625000
 10
110.950000
 20
96.625000
  0
HATCH
  5
a21
330
F6
100
AcDbEntity
  8
0
100
AcDbHatch
 10
0.0
 20
0.0
 30
0.0
210
0.0
220
0.0
230
1.0
  2
SOLID
 70
     1
 71
     0
 91
     1
 92
     7
 72
     0
 73
     1
 93
     4
 10
100.950000
 20
130.375000
 10
119.375000
 20
130.375000
 10
119.375000
 20
110.375000
 10
100.950000
 20
110.375000
 97
     1
330
a24
 75
     0
 76
     1
 47
0.651316
 98
     1
 10
0.0
 20
0.0
  0
LWPOLYLINE
  5
a24
330
F6
100
AcDbEntity
  8
0
100
AcDbPolyline
 90
     4
 70
     1
 43
0.200000
 10
100.950000
 20
130.375000
 10
119.375000
 20
130.375000
 10
119.375000
 20
110.375000
 10
100.950000
 20
110.375000
  0
HATCH
  5
a2f
330
F6
100
AcDbEntity
  8
0
100
AcDbHatch
 10
0.0
 20
0.0
 30
0.0
210
0.0
220
0.0
230
1.0
  2
SOLID
 70
     1
 71
     0
 91
     1
 92
     7
 72
     0
 73
     1
 93
     4
 10
101.100000
 20
84.425000
 10
119.525000
 20
84.425000
 10
119.525000
 20
64.425000
 10
101.100000
 20
64.425000
 97
     1
330
a32
 75
     0
 76
     1
 47
0.651316
 98
     1
 10
0.0
 20
0.0
  0
LWPOLYLINE
  5
a32
330
F6
100
AcDbEntity
  8
0
100
AcDbPolyline
 90
     4
 70
     1
 43
0.200000
 10
101.100000
 20
84.425000
 10
119.525000
 20
84.425000
 10
119.525000
 20
64.425000
 10
101.100000
 20
64.425000
  0
HATCH
  5
a3d
330
F6
100
AcDbEntity
  8
0
100
AcDbHatch
 10
0.0
 20
0.0
 30
0.0
210
0.0
220
0.0
230
1.0
  2
SOLID
 70
     1
 71
     0
 91
     1
 92
     7
 72
     0
 73
     1
 93
    17
 10
101.100000
 20
110.300000
 10
108.275000
 20
110.300000
 10
106.575000
 20
109.975000
 10
105.325000
 20
109.275000
 10
103.825000
 20
107.725000
 10
103.050000
 20
106.150000
 10
102.500000
 20
104.975000
 10
102.025000
 20
102.800000
 10
102.100000
 20
99.900000
 10
102.200000
 20
96.700000
 10
102.025000
 20
91.400000
 10
102.425000
 20
88.100000
 10
103.200000
 20
86.150000
 10
104.700000
 20
85.375000
 10
106.875000
 20
84.750000
 10
109.925000
 20
84.425000
 10
101.100000
 20
84.525000
 97
     1
330
a40
 75
     0
 76
     1
 47
0.651316
 98
     1
 10
0.0
 20
0.0
  0
LWPOLYLINE
  5
a40
330
F6
100
AcDbEntity
  8
0
100
AcDbPolyline
 90
    17
 70
     1
 43
0.200000
 10
101.100000
 20
110.300000
 10
108.275000
 20
110.300000
 10
106.575000
 20
109.975000
 10
105.325000
 20
109.275000
 10
103.825000
 20
107.725000
 10
103.050000
 20
106.150000
 10
102.500000
 20
104.975000
 10
102.025000
 20
102.800000
 10
102.100000
 20
99.900000
 10
102.200000
 20
96.700000
 10
102.025000
 20
91.400000
 10
102.425000
 20
88.100000
 10
103.200000
 20
86.150000
 10
104.700000
 20
85.375000
 10
106.875000
 20
84.750000
 10
109.925000
 20
84.425000
 10
101.100000
 20
84.525000
  0
HATCH
  5
a65
330
F6
100
AcDbEntity
  8
0
100
AcDbHatch
 10
0.0
 20
0.0
 30
0.0
210
0.0
220
0.0
230
1.0
  2
SOLID
 70
     1
 71
     0
 91
     1
 92
     7
 72
     0
 73
     1
 93
    16
 10
119.525000
 20
110.300000
 10
111.475000
 20
110.300000
 10
114.525000
 20
109.750000
 10
116.575000
 20
109.275000
 10
117.575000
 20
108.275000
 10
118.350000
 20
106.300000
 10
118.750000
 20
103.500000
 10
119.075000
 20
98.500000
 10
119.075000
 20
96.150000
 10
118.750000
 20
91.300000
 10
118.275000
 20
88.350000
 10
117.500000
 20
86.625000
 10
116.400000
 20
85.600000
 10
114.775000
 20
85.050000
 10
111.400000
 20
84.525000
 10
119.525000
 20
84.425000
 97
     1
330
a68
 75
     0
 76
     1
 47
0.651316
 98
     1
 10
0.0
 20
0.0
  0
LWPOLYLINE
  5
a68
330
F6
100
AcDbEntity
  8
0
100
AcDbPolyline
 90
    16
 70
     1
 43
0.200000
 10
119.525000
 20
110.300000
 10
111.475000
 20
110.300000
 10
114.525000
 20
109.750000
 10
116.575000
 20
109.275000
 10
117.575000
 20
108.275000
 10
118.350000
 20
106.300000
 10
118.750000
 20
103.500000
 10
119.075000
 20
98.500000
 10
119.075000
 20
96.150000
 10
118.750000
 20
91.300000
 10
118.275000
 20
88.350000
 10
117.500000
 20
86.625000
 10
116.400000
 20
85.600000
 10
114.775000
 20
85.050000
 10
111.400000
 20
84.525000
 10
119.525000
 20
84.425000
  0
HATCH
  5
a8b
330
F6
100
AcDbEntity
  8
0
100
AcDbHatch
 10
0.0
 20
0.0
 30
0.0
210
0.0
220
0.0
230
1.0
  2
SOLID
 70
     1
 71
     0
 91
     1
 92
     7
 72
     0
 73
     1
 93
    11
 10
103.200000
 20
105.850000
 10
102.825000
 20
104.525000
 10
102.425000
 20
102.725000
 10
102.275000
 20
101.150000
 10
102.425000
 20
98.500000
 10
102.425000
 20
94.425000
 10
102.350000
 20
91.475000
 10
102.425000
 20
89.600000
 10
102.650000
 20
87.950000
 10
103.050000
 20
87.025000
 10
103.200000
 20
86.475000
 97
     1
330
a8e
 75
     0
 76
     1
 47
0.651316
 98
     1
 10
0.0
 20
0.0
  0
LWPOLYLINE
  5
a8e
330
F6
100
AcDbEntity
  8
0
100
AcDbPolyline
 90
    11
 70
     1
 43
0.200000
 10
103.200000
 20
105.850000
 10
102.825000
 20
104.525000
 10
102.425000
 20
102.725000
 10
102.275000
 20
101.150000
 10
102.425000
 20
98.500000
 10
102.425000
 20
94.425000
 10
102.350000
 20
91.475000
 10
102.425000
 20
89.600000
 10
102.650000
 20
87.950000
 10
103.050000
 20
87.025000
 10
103.200000
 20
86.475000
  0
HATCH
  5
aa7
330
F6
100
AcDbEntity
  8
0
100
AcDbHatch
 10
0.0
 20
0.0
 30
0.0
210
0.0
220
0.0
230
1.0
  2
SOLID
 70
     1
 71
     0
 91
     1
 92
     7
 72
     0
 73
     1
 93
     8
 10
117.425000
 20
107.950000
 10
118.125000
 20
105.850000
 10
118.450000
 20
102.550000
 10
118.750000
 20
97.025000
 10
118.600000
 20
93.350000
 10
118.200000
 20
89.975000
 10
117.725000
 20
87.475000
 10
117.425000
 20
87.250000
 97
     1
330
aaa
 75
     0
 76
     1
 47
0.651316
 98
     1
 10
0.0
 20
0.0
  0
LWPOLYLINE
  5
aaa
330
F6
100
AcDbEntity
  8
0
100
AcDbPolyline
 90
     8
 70
     1
 43
0.200000
 10
117.425000
 20
107.950000
 10
118.125000
 20
105.850000
 10
118.450000
 20
102.550000
 10
118.750000
 20
97.025000
 10
118.600000
 20
93.350000
 10
118.200000
 20
89.975000
 10
117.725000
 20
87.475000
 10
117.425000
 20
87.250000
  0
ELLIPSE
  5
abd
100
AcDbEntity
  8
0
370
    20
100
AcDbEllipse
 10
103.750000
 20
60.525000
 30
0.000000
 11
0.000000000000000
 21
1.875000
 31
0.000000
210
0.000000
220
0.000000
230
1.000000
 40
0.186667
 41
0.000000
 42
6.283185
  0
ELLIPSE
  5
ac0
100
AcDbEntity
  8
0
370
    20
100
AcDbEllipse
 10
116.575000
 20
60.525000
 30
0.000000
 11
0.000000000000000
 21
1.875000
 31
0.000000
210
0.000000
220
0.000000
230
1.000000
 40
0.186667
 41
0.000000
 42
6.283185
  0
ELLIPSE
  5
ac3
100
AcDbEntity
  8
0
370
    20
100
AcDbEllipse
 10
101.150000
 20
138.175000
 30
0.000000
 11
0.000000000000000
 21
1.875000
 31
0.000000
210
0.000000
220
0.000000
230
1.000000
 40
0.186667
 41
3.141593
 42
0.000000
  0
ELLIPSE
  5
ac6
100
AcDbEntity
  8
0
370
    20
100
AcDbEllipse
 10
119.500000
 20
138.175000
 30
0.000000
 11
0.000000000000000
 21
1.875000
 31
0.000000
210
0.000000
220
0.000000
230
1.000000
 40
0.186667
 41
0.000000
 42
3.141593
  0
ELLIPSE
  5
ac9
100
AcDbEntity
  8
0
370
    20
100
AcDbEllipse
 10
109.975000
 20
138.575000
 30
0.000000
 11
0.000000000000000
 21
1.875000
 31
0.000000
210
0.000000
220
0.000000
230
1.000000
 40
0.186667
 41
0.000000
 42
6.283185
  0
LINE
  5
acc
100
AcDbEntity
  8
0
370
    20
100
AcDbLine
 10
47.350000
 20
178.175000
 11
47.350000
 21
91.400000
  0
LINE
  5
acf
100
AcDbEntity
  8
0
370
    20
100
AcDbLine
 10
47.750000
 20
178.700000
 11
47.750000
 21
91.400000
  0
ARC
  5
ad2
100
AcDbEntity
  8
0
370
    20
100
AcDbCircle
 10
40.675000
 20
178.100000
 40
7.075000
100
AcDbArc
 50
359.437500
 51
90.000000
  0
ARC
  5
ad5
100
AcDbEntity
  8
0
370
    20
100
AcDbCircle
 10
40.625000
 20
178.075000
 40
6.650000
100
AcDbArc
 50
0.375000
 51
90.000000
  0
LWPOLYLINE
  5
ad8
100
AcDbEntity
  8
0
100
AcDbPolyline
 90
     4
 70
     1
 43
0.200000
 10
46.975000
 20
91.375000
 10
53.125000
 20
91.375000
 10
53.125000
 20
66.675000
 10
46.975000
 20
66.675000
  0
LWPOLYLINE
  5
ae3
100
AcDbEntity
  8
0
100
AcDbPolyline
 90
     4
 70
     1
 43
0.200000
 10
48.650000
 20
91.425000
 10
48.650000
 20
93.925000
 10
51.250000
 20
93.925000
 10
51.250000
 20
91.425000
  0
LINE
  5
aee
100
AcDbEntity
  8
0
370
    20
100
AcDbLine
 10
46.975000
 20
68.975000
 11
53.125000
 21
68.975000
  0
LINE
  5
af1
100
AcDbEntity
  8
0
370
    20
100
AcDbLine
 10
46.975000
 20
86.775000
 11
53.125000
 21
86.775000
  0
LINE
  5
af4
100
AcDbEntity
  8
0
370
    20
100
AcDbLine
 10
53.125000
 20
83.350000
 11
46.975000
 21
83.350000
  0
HATCH
  5
af7
330
F6
100
AcDbEntity
  8
0
100
AcDbHatch
 10
0.0
 20
0.0
 30
0.0
210
0.0
220
0.0
230
1.0
  2
SOLID
 70
     1
 71
     0
 91
     1
 92
     7
 72
     0
 73
     1
 93
     4
 10
46.975000
 20
83.350000
 10
53.125000
 20
83.350000
 10
53.125000
 20
68.975000
 10
46.975000
 20
68.975000
 97
     1
330
afa
 75
     0
 76
     1
 47
0.651316
 98
     1
 10
0.0
 20
0.0
  0
LWPOLYLINE
  5
afa
330
F6
100
AcDbEntity
  8
0
100
AcDbPolyline
 90
     4
 70
     1
 43
0.200000
 10
46.975000
 20
83.350000
 10
53.125000
 20
83.350000
 10
53.125000
 20
68.975000
 10
46.975000
 20
68.975000
  0
LINE
  5
b05
100
AcDbEntity
  8
0
370
    20
100
AcDbLine
 10
48.625000
 20
93.800000
 11
48.625000
 21
195.850000
  0
LINE
  5
b08
100
AcDbEntity
  8
0
370
    20
100
AcDbLine
 10
51.250000
 20
93.800000
 11
51.250000
 21
195.850000
  0
MTEXT
  5
b0b
100
AcDbEntity
  8
0
100
AcDbMText
 10
16.250000
 20
154.850000
 40
1.612500
 41
42.570000
 71
     1
 72
     5
  1
\fＭＳ 明朝|b0|i0|c128|p17;\H1.6125;\T1.0200;加圧用ナイロンチュー\T1.2463;ブ
 44
0.834378
 73
     1
  7
BIGFONT
  0
LINE
  5
b0e
100
AcDbEntity
  8
0
370
    20
100
AcDbLine
 10
17.000000
 20
182.600000
 11
32.075000
 21
182.600000
  0
LINE
  5
b11
100
AcDbEntity
  8
0
370
    20
100
AcDbLine
 10
34.075000
 20
181.025000
 11
34.075000
 21
175.275000
  0
LINE
  5
b14
100
AcDbEntity
  8
0
370
    20
100
AcDbLine
 10
32.075000
 20
173.700000
 11
17.000000
 21
173.700000
  0
LINE
  5
b17
100
AcDbEntity
  8
0
370
    20
100
AcDbLine
 10
15.000000
 20
175.275000
 11
15.000000
 21
181.025000
  0
ELLIPSE
  5
b1a
100
AcDbEntity
  8
0
370
    20
100
AcDbEllipse
 10
17.000000
 20
181.025000
 30
0.000000
 11
2.000000
 21
-0.000000000000000
 31
0.000000
210
0.000000
220
0.000000
230
1.000000
 40
0.787500
 41
1.567728
 42
3.141593
  0
ELLIPSE
  5
b1d
100
AcDbEntity
  8
0
370
    20
100
AcDbEllipse
 10
32.075000
 20
181.025000
 30
0.000000
 11
2.000000
 21
-0.000000000000000
 31
0.000000
210
0.000000
220
0.000000
230
1.000000
 40
0.787500
 41
0.000000
 42
1.567728
  0
ELLIPSE
  5
b20
100
AcDbEntity
  8
0
370
    20
100
AcDbEllipse
 10
32.075000
 20
175.275000
 30
0.000000
 11
1.975000
 21
-0.000000000000000
 31
0.000000
210
0.000000
220
0.000000
230
1.000000
 40
0.797468
 41
4.709321
 42
6.283185
  0
ELLIPSE
  5
b23
100
AcDbEntity
  8
0
370
    20
100
AcDbEllipse
 10
17.000000
 20
175.275000
 30
0.000000
 11
1.975000
 21
-0.000000000000000
 31
0.000000
210
0.000000
220
0.000000
230
1.000000
 40
0.797468
 41
3.141593
 42
4.709321
  0
LINE
  5
b26
100
AcDbEntity
  8
0
370
    20
100
AcDbLine
 10
15.000000
 20
177.650000
 11
34.075000
 21
177.650000
  0
CIRCLE
  5
b29
100
AcDbEntity
  8
0
370
    40
100
AcDbCircle
 10
18.325000
 20
172.175000
 40
1.800000
  0
CIRCLE
  5
b2c
100
AcDbEntity
  8
0
370
    40
100
AcDbCircle
 10
30.600000
 20
172.175000
 40
1.800000
  0
LINE
  5
b2f
100
AcDbEntity
  8
0
370
    20
100
AcDbLine
 10
40.700000
 20
184.725000
 11
31.050000
 21
184.725000
  0
LINE
  5
b32
100
AcDbEntity
  8
0
370
    20
100
AcDbLine
 10
40.675000
 20
185.175000
 11
31.050000
 21
185.175000
  0
LWPOLYLINE
  5
b35
100
AcDbEntity
  8
0
100
AcDbPolyline
 90
     4
 70
     1
 43
0.200000
 10
30.950000
 20
185.675000
 10
30.950000
 20
184.275000
 10
30.000000
 20
184.275000
 10
30.000000
 20
185.675000
  0
LWPOLYLINE
  5
b40
100
AcDbEntity
  8
0
100
AcDbPolyline
 90
     4
 70
     1
 43
0.200000
 10
30.000000
 20
186.775000
 10
30.000000
 20
182.550000
 10
28.450000
 20
182.550000
 10
28.450000
 20
186.775000
  0
LWPOLYLINE
  5
b4b
100
AcDbEntity
  8
0
100
AcDbPolyline
 90
     4
 70
     1
 43
0.200000
 10
28.900000
 20
186.775000
 10
28.900000
 20
189.275000
 10
29.525000
 20
189.275000
 10
29.525000
 20
186.775000
  0
LWPOLYLINE
  5
b56
100
AcDbEntity
  8
0
100
AcDbPolyline
 90
     4
 70
     1
 43
0.200000
 10
22.050000
 20
188.650000
 10
22.050000
 20
182.550000
 10
20.000000
 20
182.550000
 10
20.000000
 20
188.650000
  0
CIRCLE
  5
b61
100
AcDbEntity
  8
0
370
    20
100
AcDbCircle
 10
29.225000
 20
191.475000
 40
2.200000
  0
CIRCLE
  5
b64
100
AcDbEntity
  8
0
370
    20
100
AcDbCircle
 10
29.225000
 20
191.475000
 40
1.775000
  0
LINE
  5
b67
100
AcDbEntity
  8
0
370
    20
100
AcDbLine
 10
25.225000
 20
191.000000
 11
25.450000
 21
191.000000
  0
LWPOLYLINE
  5
b6a
100
AcDbEntity
  8
0
100
AcDbPolyline
 90
     4
 70
     0
 43
0.200000
 10
25.950000
 20
190.500000
 10
25.950000
 20
182.550000
 10
24.400000
 20
182.550000
 10
24.400000
 20
189.625000
  0
ARC
  5
b75
100
AcDbEntity
  8
0
370
    20
100
AcDbCircle
 10
25.425000
 20
190.475000
 40
0.500000
100
AcDbArc
 50
360.000000
 51
90.000000
  0
LWPOLYLINE
  5
b78
100
AcDbEntity
  8
0
100
AcDbPolyline
 90
     5
 70
     0
 43
0.200000
 10
25.950000
 20
186.300000
 10
28.450000
 20
186.300000
 10
28.450000
 20
186.300000
 10
28.450000
 20
183.650000
 10
25.950000
 20
183.650000
  0
LWPOLYLINE
  5
b85
100
AcDbEntity
  8
0
100
AcDbPolyline
 90
     4
 70
     0
 43
0.200000
 10
24.400000
 20
183.650000
 10
22.025000
 20
183.650000
 10
22.025000
 20
186.300000
 10
24.400000
 20
186.300000
  0
LINE
  5
b90
100
AcDbEntity
  8
0
370
    20
100
AcDbLine
 10
25.950000
 20
190.550000
 11
25.950000
 21
189.725000
  0
ARC
  5
b93
100
AcDbEntity
  8
0
370
    20
100
AcDbCircle
 10
25.475000
 20
190.525000
 40
0.450000
100
AcDbArc
 50
360.000000
 51
90.000000
  0
ARC
  5
b96
100
AcDbEntity
  8
0
370
    20
100
AcDbCircle
 10
25.325000
 20
189.750000
 40
0.600000
100
AcDbArc
 50
242.312500
 51
360.000000
  0
LINE
  5
b99
100
AcDbEntity
  8
0
370
    20
100
AcDbLine
 10
14.450000
 20
197.300000
 11
25.850000
 21
190.700000
  0
LINE
  5
b9c
100
AcDbEntity
  8
0
370
    20
100
AcDbLine
 10
25.000000
 20
189.225000
 11
13.600000
 21
195.800000
  0
ARC
  5
b9f
100
AcDbEntity
  8
0
370
    20
100
AcDbCircle
 10
13.825000
 20
196.225000
 40
0.450000
100
AcDbArc
 50
166.125000
 51
240.000000
  0
ARC
  5
ba2
100
AcDbEntity
  8
0
370
    20
100
AcDbCircle
 10
14.225000
 20
196.875000
 40
0.450000
100
AcDbArc
 50
60.000000
 51
140.437500
  0
ELLIPSE
  5
ba5
100
AcDbEntity
  8
0
370
    20
100
AcDbEllipse
 10
11.700000
 20
197.850000
 30
0.000000
 11
2.294967
 21
-1.325000
 31
0.000000
210
0.000000
220
0.000000
230
1.000000
 40
0.349057
 41
0.570641
 42
5.746292
  0
CIRCLE
  5
ba8
100
AcDbEntity
  8
0
370
    20
100
AcDbCircle
 10
20.975000
 20
192.475000
 40
0.350000
  0
CIRCLE
  5
bab
100
AcDbEntity
  8
0
370
    20
100
AcDbCircle
 10
25.125000
 20
190.150000
 40
0.350000
  0
LWPOLYLINE
  5
bae
100
AcDbEntity
  8
0
100
AcDbPolyline
 90
     4
 70
     0
 43
0.200000
 10
20.425000
 20
191.775000
 10
20.425000
 20
188.650000
 10
21.475000
 20
188.650000
 10
21.475000
 20
191.200000
  0
MTEXT
  5
bb9
100
AcDbEntity
  8
0
100
AcDbMText
 10
24.225000
 20
199.975000
 40
1.875000
 41
22.500000
 71
     1
 72
     5
  1
\fＭＳ 明朝|b0|i0|c128|p17;\H1.875;\T1.0200;加圧タン\T1.1651;ク
 44
0.816995
 73
     1
  7
BIGFONT
  0
LINE
  5
bbc
100
AcDbEntity
  8
0
370
    20
100
AcDbLine
 10
29.825000
 20
190.225000
 11
28.575000
 21
192.875000
  0
LWPOLYLINE
  5
bbf
100
AcDbEntity
  8
0
100
AcDbPolyline
 90
     3
 70
     0
 43
0.200000
 10
29.250000
 20
192.150000
 10
28.575000
 20
192.875000
 10
28.700000
 20
191.900000
  0
MTEXT
  5
bc8
100
AcDbEntity
  8
0
100
AcDbMText
 10
61.250000
 20
147.175000
 40
1.875000
 41
13.500000
 71
     1
 72
     5
  1
\fＭＳ 明朝|b0|i0|c128|p17;\H1.875;\T1.0200;ロッ\T1.1651;ド
 44
0.816995
 73
     1
  7
BIGFONT
  0
MTEXT
  5
bcb
100
AcDbEntity
  8
0
100
AcDbMText
 10
132.900000
 20
123.500000
 40
2.681250
 41
64.350000
 71
     1
 72
     5
  1
\f@ＭＳ 明朝|b0|i0|c128|p17;\T1.0200;孔径検出カンチレバー
 44
0.767861
 73
     1
 11
-0.000000000000000
 21
-1.000000
 31
0.000000
  7
BIGFONT
  0
LINE
  5
bce
100
AcDbEntity
  8
0
370
    20
100
AcDbLine
 10
129.350000
 20
99.425000
 11
114.525000
 21
92.250000
  0
LWPOLYLINE
  5
bd1
100
AcDbEntity
  8
0
100
AcDbPolyline
 90
     3
 70
     0
 43
0.200000
 10
115.250000
 20
92.950000
 10
114.525000
 20
92.250000
 10
115.500000
 20
92.400000
  0
LINE
  5
bda
100
AcDbEntity
  8
0
370
    20
100
AcDbLine
 10
106.250000
 20
103.800000
 11
104.525000
 21
103.800000
  0
LWPOLYLINE
  5
bdd
100
AcDbEntity
  8
0
100
AcDbPolyline
 90
     3
 70
     0
 43
0.200000
 10
105.475000
 20
104.125000
 10
104.525000
 20
103.800000
 10
105.475000
 20
103.500000
  0
LINE
  5
be6
100
AcDbEntity
  8
0
370
    20
100
AcDbLine
 10
106.575000
 20
96.150000
 11
104.525000
 21
96.150000
  0
LWPOLYLINE
  5
be9
100
AcDbEntity
  8
0
100
AcDbPolyline
 90
     3
 70
     0
 43
0.200000
 10
105.475000
 20
96.475000
 10
104.525000
 20
96.150000
 10
105.475000
 20
95.850000
  0
LINE
  5
bf2
100
AcDbEntity
  8
0
370
    20
100
AcDbLine
 10
114.375000
 20
103.800000
 11
115.950000
 21
103.800000
  0
LWPOLYLINE
  5
bf5
100
AcDbEntity
  8
0
100
AcDbPolyline
 90
     3
 70
     0
 43
0.200000
 10
114.975000
 20
103.500000
 10
115.950000
 20
103.800000
 10
114.975000
 20
104.125000
  0
LINE
  5
bfe
100
AcDbEntity
  8
0
370
    20
100
AcDbLine
 10
114.225000
 20
96.150000
 11
115.950000
 21
96.150000
  0
LWPOLYLINE
  5
c01
100
AcDbEntity
  8
0
100
AcDbPolyline
 90
     3
 70
     0
 43
0.200000
 10
114.975000
 20
95.850000
 10
115.950000
 20
96.150000
 10
114.975000
 20
96.475000
  0
ELLIPSE
  5
c0a
100
AcDbEntity
  8
0
370
    20
100
AcDbEllipse
 10
103.750000
 20
149.550000
 30
0.000000
 11
0.000000000000000
 21
1.875000
 31
0.000000
210
0.000000
220
0.000000
230
1.000000
 40
0.186667
 41
0.000000
 42
6.283185
  0
ELLIPSE
  5
c0d
100
AcDbEntity
  8
0
370
    20
100
AcDbEllipse
 10
116.575000
 20
149.550000
 30
0.000000
 11
0.000000000000000
 21
1.875000
 31
0.000000
210
0.000000
220
0.000000
230
1.000000
 40
0.186667
 41
0.000000
 42
6.283185
  0
LINE
  5
c10
100
AcDbEntity
  8
0
370
    20
100
AcDbLine
 10
57.350000
 20
182.175000
 11
52.575000
 21
182.175000
  0
LWPOLYLINE
  5
c13
100
AcDbEntity
  8
0
100
AcDbPolyline
 90
     3
 70
     0
 43
0.200000
 10
54.475000
 20
182.800000
 10
52.575000
 20
182.175000
 10
54.475000
 20
181.575000
  0
LINE
  5
c1c
100
AcDbEntity
  8
0
370
    20
100
AcDbLine
 10
40.475000
 20
152.550000
 11
47.575000
 21
152.550000
  0
LWPOLYLINE
  5
c1f
100
AcDbEntity
  8
0
100
AcDbPolyline
 90
     3
 70
     0
 43
0.200000
 10
45.650000
 20
151.950000
 10
47.575000
 20
152.550000
 10
45.650000
 20
153.175000
  0
LINE
  5
c28
100
AcDbEntity
  8
0
370
    20
100
AcDbLine
 10
61.100000
 20
144.675000
 11
51.100000
 21
144.675000
  0
LWPOLYLINE
  5
c2b
100
AcDbEntity
  8
0
100
AcDbPolyline
 90
     3
 70
     0
 43
0.200000
 10
53.000000
 20
145.300000
 10
51.100000
 20
144.675000
 10
53.000000
 20
144.075000
  0
MTEXT
  5
c34
100
AcDbEntity
  8
0
100
AcDbMText
 10
91.775000
 20
133.675000
 40
2.681250
 41
51.480000
 71
     1
 72
     5
  1
\f@ＭＳ 明朝|b0|i0|c128|p17;\T1.0200;載荷ゴムチューブ
 44
0.767861
 73
     1
 11
-0.000000000000000
 21
-1.000000
 31
0.000000
  7
BIGFONT
  0
LINE
  5
c37
100
AcDbEntity
  8
0
370
    20
100
AcDbLine
 10
92.350000
 20
123.175000
 11
108.450000
 21
119.425000
  0
LWPOLYLINE
  5
c3a
100
AcDbEntity
  8
0
100
AcDbPolyline
 90
     3
 70
     0
 43
0.200000
 10
107.450000
 20
119.350000
 10
108.450000
 20
119.425000
 10
107.575000
 20
119.950000
  0
ENDSEC
  0
SECTION
  2
OBJECTS
  0
DICTIONARY
  5
c4b
100
AcDbDictionary
281
     1
  3
ACAD_COLOR
350
c4c
  3
ACAD_GROUP
350
c4d
  3
ACAD_LAYOUT
350
c4e
  3
ACAD_MATERIAL
350
c4f
  3
ACAD_MLINESTYLE
350
c50
  3
CONTENTDICTIONARY
350
c56
  0
DICTIONARY
  5
c4c
102
{ACAD_REACTORS
330
c4b
102
}
330
c4b
100
AcDbDictionary
281
     1
  0
DICTIONARY
  5
c4d
102
{ACAD_REACTORS
330
c4b
102
}
330
c4b
100
AcDbDictionary
281
     1
  3
Layout1
350
c57
  3
Layout2
350
c58
  3
Model
350
c9b
  0
DICTIONARY
  5
c4e
102
{ACAD_REACTORS
330
c4b
102
}
330
c4b
100
AcDbDictionary
281
     1
  0
DICTIONARY
  5
c4f
102
{ACAD_REACTORS
330
c4b
102
}
330
c4b
100
AcDbDictionary
281
     1
  0
DICTIONARY
  5
c50
102
{ACAD_REACTORS
330
c4b
102
}
330
c4b
100
AcDbDictionary
281
     1
  3
Standard
350
c59
  0
DICTIONARY
  5
c51
102
{ACAD_REACTORS
330
c4b
102
}
330
c4b
100
AcDbDictionary
281
     1
  0
ACDBDICTIONARYWDFLT
  5
c52
102
{ACAD_REACTORS
330
c4b
102
}
330
c4b
100
AcDbDictionary
281
     1
  3
Normal
350
c9c
100
AcDbDictionaryWithDefault
340
c9c
  0
DICTIONARY
  5
c53
102
{ACAD_REACTORS
330
c4b
102
}
330
c4b
100
AcDbDictionary
281
     1
  3
Standard
350
c9d
  0
DICTIONARY
  5
c54
102
{ACAD_REACTORS
330
c4b
102
}
330
c4b
100
AcDbDictionary
281
     1
  3
CEPSNTYPE
350
c5b
  3
FINGERPRINTGUID
350
c5c
  3
HYPERLINKBASE
350
c5d
  3
INSUNITS
350
c5e
  3
LAYOUTDICT
350
c5f
  3
LWETCUNION
350
c60
  3
PLOTSETDICT
350
c61
  3
PLOTSTYLNAMDICT
350
c62
  3
PSVPSCALE
350
c63
  3
PUCSBASE
350
c64
  3
PUCSORGBACK
350
c65
  3
PUCSORGBOTTOM
350
c66
  3
PUCSORGFRONT
350
c67
  3
PUCSORGLEFT
350
c68
  3
PUCSORGRIGHT
350
c69
  3
PUCSORGTOP
350
c6a
  3
PUCSORTHOREF
350
c6b
  3
PUCSORTHOVIEW
350
c6c
  3
STYLESHEET
350
c6d
  3
TSTACKALIGN
350
c6e
  3
TSTACKSIZE
350
c6f
  3
UCSBASE
350
c70
  3
UCSORGBACK
350
c71
  3
UCSORGBOTTOM
350
c72
  3
UCSORGFRONT
350
c73
  3
UCSORGLEFT
350
c74
  3
UCSORGRIGHT
350
c75
  3
UCSORGTOP
350
c76
  3
UCSORTHOREF
350
c77
  3
UCSORTHOVIEW
350
c78
  3
VERSIONGUID
350
c79
  0
DICTIONARY
  5
c55
102
{ACAD_REACTORS
330
c4b
102
}
330
c4b
100
AcDbDictionary
281
     1
  3
CTABLESTYLE
350
c7a
  3
DIMASSOC
350
c7b
  3
HIDETEXT
350
c7c
  3
PROJECTNAME
350
c7d
  0
LAYOUT
  5
c56
102
{ACAD_XDICTIONARY
360
f61
102
}
102
{ACAD_REACTORS
330
c4c
102
}
330
c4c
100
AcDbPlotSettings
  1

  2

  4

  6

 40
0.000000
 41
0.000000
 42
0.000000
 43
0.000000
 44
0.000000
 45
0.000000
 46
0.000000
 47
0.000000
 48
0.000000
 49
0.000000
140
0.000000
141
0.000000
142
1.000000
143
1.000000
 70
   688
 72
     0
 73
     0
 74
     5
  7

 75
    16
147
1.000000
148
0.000000
149
0.000000
100
AcDbLayout
  1
Layout1
 70
     1
 71
     1
 10
0.000000
 20
0.000000
 11
157.000000
 21
246.000000
 12
0.000000
 22
0.000000
 32
0.000000
 14
100000000000000000000.000000
 24
100000000000000000000.000000
 34
100000000000000000000.000000
 15
-100000000000000000000.000000
 25
-100000000000000000000.000000
 35
-100000000000000000000.000000
146
0.000000
 13
0.000000
 23
0.000000
 33
0.000000
 16
1.000000
 26
0.000000
 36
0.000000
 17
0.000000
 27
1.000000
 37
0.000000
 76
     0
330
c50
  0
LAYOUT
  5
c57
102
{ACAD_XDICTIONARY
360
f63
102
}
102
{ACAD_REACTORS
330
c4c
102
}
330
c4c
100
AcDbPlotSettings
  1

  2

  4

  6

 40
0.000000
 41
0.000000
 42
0.000000
 43
0.000000
 44
0.000000
 45
0.000000
 46
0.000000
 47
0.000000
 48
0.000000
 49
0.000000
140
0.000000
141
0.000000
142
1.000000
143
1.000000
 70
   688
 72
     0
 73
     0
 74
     5
  7

 75
    16
147
1.000000
148
0.000000
149
0.000000
100
AcDbLayout
  1
Layout2
 70
     1
 71
     2
 10
0.000000
 20
0.000000
 11
157.000000
 21
246.000000
 12
0.000000
 22
0.000000
 32
0.000000
 14
0.000000
 24
0.000000
 34
0.000000
 15
0.000000
 25
0.000000
 35
0.000000
146
0.000000
 13
0.000000
 23
0.000000
 33
0.000000
 16
1.000000
 26
0.000000
 36
0.000000
 17
0.000000
 27
1.000000
 37
0.000000
 76
     0
330
c57
  0
LAYOUT
  5
c58
102
{ACAD_XDICTIONARY
360
f65
102
}
102
{ACAD_REACTORS
330
c4c
102
}
330
c4c
100
AcDbPlotSettings
  1

  2

  4

  6

 40
0.000000
 41
0.000000
 42
0.000000
 43
0.000000
 44
0.000000
 45
0.000000
 46
0.000000
 47
0.000000
 48
0.000000
 49
0.000000
140
0.000000
141
0.000000
142
1.000000
143
1.000000
 70
  1712
 72
     0
 73
     0
 74
     0
  7

 75
    16
147
1.000000
148
0.000000
149
0.000000
100
AcDbLayout
  1
Model
 70
     1
 71
     0
 10
0.000000
 20
0.000000
 11
157.000000
 21
246.000000
 12
0.000000
 22
0.000000
 32
0.000000
 14
0.000000
 24
0.000000
 34
0.000000
 15
0.000000
 25
0.000000
 35
0.000000
146
0.000000
 13
0.000000
 23
0.000000
 33
0.000000
 16
1.000000
 26
0.000000
 36
0.000000
 17
0.000000
 27
1.000000
 37
0.000000
 76
     0
330
c58
  0
MLINESTYLE
  5
c59
102
{ACAD_REACTORS
330
c58
102
}
330
c58
100
AcDbMlineStyle
  2
STANDARD
 70
     0
  3
 
 62
   256
 51
90.000000
 52
90.000000
 71
     2
 49
0.500000
 62
   256
  6
BYLAYER
 49
-0.500000
 62
   256
  6
BYLAYER
  0
ACDBPLACEHOLDER
  5
c5a
102
{ACAD_REACTORS
330
c59
102
}
330
c59
  0
DICTIONARY
  5
f61
100
AcDbDictionary
280
     1
281
     1
  3
ACAD_XREC_ROUNDTRIP
360
f62
  0
DICTIONARY
  5
f63
100
AcDbDictionary
280
     1
281
     1
  3
ACAD_XREC_ROUNDTRIP
360
f64
  0
DICTIONARY
  5
f65
100
AcDbDictionary
280
     1
281
     1
  3
ACAD_XREC_ROUNDTRIP
360
f66
  0
XRECORD
  5
f62
102
{ACAD_REACTORS
330
f61
102
}
330
f61
100
AcDbXrecord
280
     1
102
SHADEPLOT
 70
     0
102
SHADEPLOTRESLEVEL
 70
     2
102
SHADEPLOTCUSTOMDPI
 70
   300
  0
XRECORD
  5
f64
102
{ACAD_REACTORS
330
f63
102
}
330
f63
100
AcDbXrecord
280
     1
102
SHADEPLOT
 70
     0
102
SHADEPLOTRESLEVEL
 70
     2
102
SHADEPLOTCUSTOMDPI
 70
   300
  0
XRECORD
  5
f66
102
{ACAD_REACTORS
330
f65
102
}
330
f65
100
AcDbXrecord
280
     1
102
SHADEPLOT
 70
     0
102
SHADEPLOTRESLEVEL
 70
     2
102
SHADEPLOTCUSTOMDPI
 70
   300
  0
ENDSEC
  0
EOF
