  0
SECTION
  2
HEADER
  9
$ACADVER
  1
AC1018
  9
$ACADMAINTVER
 70
     0
  9
$DWGCODEPAGE
  3
ANSI_932
  9
$INSBASE
 10
0.000000
 20
0.000000
 30
0.000000
  9
$EXTMIN
 10
0.000000
 20
0.000000
 30
0.000000
  9
$EXTMAX
 10
199.000000
 20
284.000000
 30
0.000000
  9
$LIMMIN
 10
0.000000
 20
0.000000
  9
$LIMMAX
 10
199.000000
 20
284.000000
  9
$ORTHOMODE
 70
     0
  9
$REGENMODE
 70
     1
  9
$FILLMODE
 70
     1
  9
$QTEXTMODE
 70
     0
  9
$MIRRTEXT
 70
     1
  9
$LTSCALE
 40
1.000000
  9
$ATTMODE
 70
     1
  9
$TEXTSIZE
 40
2.500000
  9
$TRACEWID
 40
1.000000
  9
$TEXTSTYLE
  7
BIGFONT
  9
$CLAYER
  8
0
  9
$CELTYPE
  6
BYLAYER
  9
$CECOLOR
 62
   256
  9
$CELTSCALE
 40
1.000000
  9
$DISPSILH
 70
     0
  9
$DIMSCALE
 40
1.000000
  9
$DIMASZ
 40
2.500000
  9
$DIMEXO
 40
0.625000
  9
$DIMDLI
 40
3.750000
  9
$DIMRND
 40
0.000000
  9
$DIMDLE
 40
0.000000
  9
$DIMEXE
 40
1.250000
  9
$DIMTP
 40
0.000000
  9
$DIMTM
 40
0.000000
  9
$DIMTXT
 40
2.500000
  9
$DIMCEN
 40
2.500000
  9
$DIMTSZ
 40
0.000000
  9
$DIMTOL
 70
     0
  9
$DIMLIM
 70
     0
  9
$DIMTIH
 70
     0
  9
$DIMTOH
 70
     0
  9
$DIMSE1
 70
     0
  9
$DIMSE2
 70
     0
  9
$DIMTAD
 70
     1
  9
$DIMZIN
 70
     8
  9
$DIMBLK
  1

  9
$DIMASO
 70
     1
  9
$DIMSHO
 70
     1
  9
$DIMPOST
  1

  9
$DIMAPOST
  1

  9
$DIMALT
 70
     0
  9
$DIMALTD
 70
     4
  9
$DIMALTF
 40
0.039400
  9
$DIMLFAC
 40
1.000000
  9
$DIMTOFL
 70
     1
  9
$DIMTVP
 40
0.000000
  9
$DIMTIX
 70
     0
  9
$DIMSOXD
 70
     0
  9
$DIMSAH
 70
     0
  9
$DIMBLK1
  1

  9
$DIMBLK2
  1

  9
$DIMSTYLE
  2
STANDARD
  9
$DIMCLRD
 70
     0
  9
$DIMCLRE
 70
     0
  9
$DIMCLRT
 70
     0
  9
$DIMTFAC
 40
1.000000
  9
$DIMGAP
 40
0.625000
  9
$DIMJUST
 70
     0
  9
$DIMSD1
 70
     0
  9
$DIMSD2
 70
     0
  9
$DIMTOLJ
 70
     1
  9
$DIMTZIN
 70
     0
  9
$DIMALTZ
 70
     0
  9
$DIMALTTZ
 70
     0
  9
$DIMUPT
 70
     0
  9
$DIMDEC
 70
     4
  9
$DIMTDEC
 70
     4
  9
$DIMALTU
 70
     8
  9
$DIMALTTD
 70
     4
  9
$DIMTXSTY
  7
STANDARD
  9
$DIMAUNIT
 70
     0
  9
$DIMADEC
 70
     0
  9
$DIMALTRND
 40
0.000000
  9
$DIMAZIN
 70
     0
  9
$DIMDSEP
 70
    46
  9
$DIMATFIT
 70
     3
  9
$DIMFRAC
 70
     0
  9
$DIMLDRBLK
  1

  9
$DIMLUNIT
 70
     2
  9
$DIMLWD
 70
-2
  9
$DIMLWE
 70
-2
  9
$DIMTMOVE
 70
     0
  9
$LUNITS
 70
     2
  9
$LUPREC
 70
     4
  9
$AXISMODE
 70
     0
  9
$SKETCHINC
 40
1.000000
  9
$FILLETRAD
 40
10.000000
  9
$AUNITS
 70
     0
  9
$AUPREC
 70
     0
  9
$MENU
  1
acad
  9
$ELEVATION
 40
0.000000
  9
$PELEVATION
 40
0.000000
  9
$THICKNESS
 40
0.000000
  9
$LIMCHECK
 70
     0
  9
$BLIPMODE
 70
     0
  9
$CHAMFERA
 40
10.000000
  9
$CHAMFERB
 40
10.000000
  9
$CHAMFERC
 40
20.000000
  9
$CHAMFERD
 40
0.000000
  9
$SKPOLY
 70
     0
  9
$TDCREATE
 40
2447851.677998
  9
$TDUCREATE
 40
2447851.677998
  9
$TDUPDATE
 40
2447851.677998
  9
$TDUUPDATE
 40
2447851.677998
  9
$TDINDWG
 40
0.000000
  9
$TDUSRTIMER
 40
0.000000
  9
$USRTIMER
 70
     1
  9
$ANGBASE
 50
0.000000
  9
$ANGDIR
 70
     0
  9
$PDMODE
 70
     0
  9
$PDSIZE
 40
0.000000
  9
$PLINEWID
 40
0.000000
  9
$SPLFRAME
 70
     0
  9
$SPLINETYPE
 70
     6
  9
$SPLINESEGS
 70
     8
  9
$HANDSEED
  5
FFFFFFF
  9
$SURFTAB1
 70
     6
  9
$SURFTAB2
 70
     6
  9
$SURFTYPE
 70
     6
  9
$SURFU
 70
     6
  9
$SURFV
 70
     6
  9
$UCSBASE
  2

  9
$UCSNAME
  2

  9
$UCSORG
 10
0.000000
 20
0.000000
 30
0.000000
  9
$UCSXDIR
 10
1.000000
 20
0.000000
 30
0.000000
  9
$UCSYDIR
 10
0.000000
 20
1.000000
 30
0.000000
  9
$UCSORTHOREF
  2

  9
$UCSORTHOVIEW
 70
     0
  9
$UCSORGTOP
 10
0.000000
 20
0.000000
 30
0.000000
  9
$UCSORGBOTTOM
 10
0.000000
 20
0.000000
 30
0.000000
  9
$UCSORGLEFT
 10
0.000000
 20
0.000000
 30
0.000000
  9
$UCSORGRIGHT
 10
0.000000
 20
0.000000
 30
0.000000
  9
$UCSORGFRONT
 10
0.000000
 20
0.000000
 30
0.000000
  9
$UCSORGBACK
 10
0.000000
 20
0.000000
 30
0.000000
  9
$PUCSBASE
  2

  9
$PUCSNAME
  2

  9
$PUCSORG
 10
0.000000
 20
0.000000
 30
0.000000
  9
$PUCSXDIR
 10
1.000000
 20
0.000000
 30
0.000000
  9
$PUCSYDIR
 10
0.000000
 20
1.000000
 30
0.000000
  9
$PUCSORTHOREF
  2

  9
$PUCSORTHOVIEW
 70
     0
  9
$PUCSORGTOP
 10
0.000000
 20
0.000000
 30
0.000000
  9
$PUCSORGBOTTOM
 10
0.000000
 20
0.000000
 30
0.000000
  9
$PUCSORGLEFT
 10
0.000000
 20
0.000000
 30
0.000000
  9
$PUCSORGRIGHT
 10
0.000000
 20
0.000000
 30
0.000000
  9
$PUCSORGFRONT
 10
0.000000
 20
0.000000
 30
0.000000
  9
$PUCSORGBACK
 10
0.000000
 20
0.000000
 30
0.000000
  9
$USERI1
 70
     0
  9
$USERI2
 70
     0
  9
$USERI3
 70
     0
  9
$USERI4
 70
     0
  9
$USERI5
 70
     0
  9
$USERR1
 40
0.000000
  9
$USERR2
 40
0.000000
  9
$USERR3
 40
0.000000
  9
$USERR4
 40
0.000000
  9
$USERR5
 40
0.000000
  9
$WORLDVIEW
 70
     1
  9
$SHADEDGE
 70
     3
  9
$SHADEDIF
 70
    70
  9
$TILEMODE
 70
     1
  9
$MAXACTVP
 70
    48
  9
$PINSBASE
 10
0.000000
 20
0.000000
 30
0.000000
  9
$PLIMCHECK
 70
     0
  9
$PEXTMIN
 10
100000000000000000000.000000
 20
100000000000000000000.000000
 30
100000000000000000000.000000
  9
$PEXTMAX
 10
-100000000000000000000.000000
 20
-100000000000000000000.000000
 30
-100000000000000000000.000000
  9
$PLIMMIN
 10
0.000000
 20
0.000000
  9
$PLIMMAX
 10
199.000000
 20
284.000000
  9
$UNITMODE
 70
     0
  9
$VISRETAIN
 70
     1
  9
$PLINEGEN
 70
     0
  9
$PSLTSCALE
 70
     1
  9
$TREEDEPTH
 70
  3020
  9
$CMLSTYLE
  2
STANDARD
  9
$CMLJUST
 70
     0
  9
$CMLSCALE
 40
20.000000
  9
$PROXYGRAPHICS
 70
     1
  9
$MEASUREMENT
 70
     1
  9
$CELWEIGHT
370
-1
  9
$ENDCAPS
280
     0
  9
$JOINSTYLE
280
     0
  9
$LWDISPLAY
290
     1
  9
$INSUNITS
 70
     0
  9
$HYPERLINKBASE
  1

  9
$STYLESHEET
  1

  9
$XEDIT
290
     1
  9
$CEPSNTYPE
380
     0
  9
$PSTYLEMODE
290
     1
  9
$FINGERPRINTGUID
  2
{01801163-5BC0-459E-B9C7-2188C09ED432}
  9
$VERSIONGUID
  2
{7F326DDD-95DF-42AD-9861-A0CD9F0961F2}
  9
$EXTNAMES
290
     1
  9
$PSVPSCALE
 40
0.0
  9
$OLESTARTUP
290
     0
  9
$SORTENTS
280
   127
  9
$INDEXCTL
280
     0
  9
$HIDETEXT
280
     1
  9
$XCLIPFRAME
290
     0
  9
$HALOGAP
280
     0
  9
$OBSCOLOR
 70
   257
  9
$OBSLTYPE
280
     0
  9
$INTERSECTIONDISPLAY
280
     0
  9
$INTERSECTIONCOLOR
 70
   257
  9
$DIMASSOC
280
     2
  9
$PROJECTNAME
  1

  0
ENDSEC
  0
SECTION
  2
TABLES
  0
TABLE
  2
VPORT
  5
a2
100
AcDbSymbolTable
 70
     2
  0
VPORT
  5
a5
100
AcDbSymbolTableRecord
100
AcDbViewportTableRecord
  2
*ACTIVE
 70
     0
 10
0.000000
 20
0.000000
 11
1.000000
 21
1.000000
 12
300.000000
 22
200.000000
 13
0.000000
 23
0.000000
 14
10.000000
 24
10.000000
 15
10.000000
 25
10.000000
 16
0.000000
 26
0.000000
 36
1.000000
 17
0.000000
 27
0.000000
 37
0.000000
 40
300.000000
 41
1.600432
 42
50.000000
 43
0.000000
 44
0.000000
 50
0.000000
 51
0.000000
 71
     0
 72
   100
 73
     1
 74
     1
 75
     0
 76
     0
 77
     0
 78
     0
  0
ENDTAB
  0
TABLE
  2
LTYPE
  5
a8
100
AcDbSymbolTable
 70
    11
  0
LTYPE
  5
ab
100
AcDbSymbolTableRecord
100
AcDbLinetypeTableRecord
  2
BYBLOCK
 70
    64
  3
BYBLOCK
 72
    65
 73
     0
 40
0.000000
  0
LTYPE
  5
ae
100
AcDbSymbolTableRecord
100
AcDbLinetypeTableRecord
  2
BYLAYER
 70
    64
  3
BYLAYER
 72
    65
 73
     0
 40
0.000000
  0
LTYPE
  5
b1
100
AcDbSymbolTableRecord
100
AcDbLinetypeTableRecord
  2
CONTINUOUS
 70
    64
  3
実線
 72
    65
 73
     0
 40
0.000000
  0
LTYPE
  5
b4
100
AcDbSymbolTableRecord
100
AcDbLinetypeTableRecord
  2
DASHED
 70
    64
  3
__ __ __ __ __ __ __ __ __ __ __ __ __ __ __
 72
    65
 73
     2
 40
0.750000
 49
0.500000
 74
     0
 49
-0.250000
 74
     0
  0
LTYPE
  5
b7
100
AcDbSymbolTableRecord
100
AcDbLinetypeTableRecord
  2
HIDDEN
 70
    64
  3
_ _ _ _ _ _ _ _ _ _ _ _ _ _ _ _ _ _ _ _ _ _ _
 72
    65
 73
     2
 40
0.375000
 49
0.250000
 74
     0
 49
-0.125000
 74
     0
  0
LTYPE
  5
ba
100
AcDbSymbolTableRecord
100
AcDbLinetypeTableRecord
  2
CENTER
 70
    64
  3
____ _ ____ _ ____ _ ____ _ ____ _ ____ _ ____
 72
    65
 73
     4
 40
2.000000
 49
1.250000
 74
     0
 49
-0.250000
 74
     0
 49
0.250000
 74
     0
 49
-0.250000
 74
     0
  0
LTYPE
  5
bd
100
AcDbSymbolTableRecord
100
AcDbLinetypeTableRecord
  2
PHANTOM
 70
    64
  3
_____ _ _ _____ _ _ _____ _ _ _____ _ _ ____
 72
    65
 73
     6
 40
2.500000
 49
1.250000
 74
     0
 49
-0.250000
 74
     0
 49
0.250000
 74
     0
 49
-0.250000
 74
     0
 49
0.250000
 74
     0
 49
-0.250000
 74
     0
  0
LTYPE
  5
c0
100
AcDbSymbolTableRecord
100
AcDbLinetypeTableRecord
  2
DOT
 70
    64
  3
...............................................
 72
    65
 73
     2
 40
0.250000
 49
0.000000
 74
     0
 49
-0.250000
 74
     0
  0
LTYPE
  5
c3
100
AcDbSymbolTableRecord
100
AcDbLinetypeTableRecord
  2
DASHDOT
 70
    64
  3
__ . __ . __ . __ . __ . __ . __ . __ . __ . __
 72
    65
 73
     4
 40
1.000000
 49
0.500000
 74
     0
 49
-0.250000
 74
     0
 49
0.000000
 74
     0
 49
-0.250000
 74
     0
  0
LTYPE
  5
c6
100
AcDbSymbolTableRecord
100
AcDbLinetypeTableRecord
  2
BORDER
 70
    64
  3
__ __ . __ __ . __ __ . __ __ . __ __ . __ __
 72
    65
 73
     6
 40
1.750000
 49
0.500000
 74
     0
 49
-0.250000
 74
     0
 49
0.500000
 74
     0
 49
-0.250000
 74
     0
 49
0.000000
 74
     0
 49
-0.250000
 74
     0
  0
LTYPE
  5
c9
100
AcDbSymbolTableRecord
100
AcDbLinetypeTableRecord
  2
DIVIDE
 70
    64
  3
__ . . __ . . __ . . __ . . __ . . __ . . __
 72
    65
 73
     6
 40
1.250000
 49
0.500000
 74
     0
 49
-0.250000
 74
     0
 49
0.000000
 74
     0
 49
-0.250000
 74
     0
 49
0.000000
 74
     0
 49
-0.250000
 74
     0
  0
ENDTAB
  0
TABLE
  2
LAYER
  5
cc
100
AcDbSymbolTable
 70
     2
  0
LAYER
  5
cf
100
AcDbSymbolTableRecord
100
AcDbLayerTableRecord
  2
0
 70
     0
 62
     7
  6
CONTINUOUS
370
 65533
390
	F
  0
LAYER
  5
d2
100
AcDbSymbolTableRecord
100
AcDbLayerTableRecord
  2
B
 70
     0
 62
     7
  6
CONTINUOUS
370
 65533
390
	F
  0
LAYER
  5
d5
100
AcDbSymbolTableRecord
100
AcDbLayerTableRecord
  2
C
 70
     0
 62
     7
  6
CONTINUOUS
370
 65533
390
	F
  0
LAYER
  5
d8
100
AcDbSymbolTableRecord
100
AcDbLayerTableRecord
  2
D
 70
     0
 62
     7
  6
CONTINUOUS
370
 65533
390
	F
  0
LAYER
  5
db
100
AcDbSymbolTableRecord
100
AcDbLayerTableRecord
  2
E
 70
     0
 62
     7
  6
CONTINUOUS
370
 65533
390
	F
  0
LAYER
  5
de
100
AcDbSymbolTableRecord
100
AcDbLayerTableRecord
  2
F
 70
     0
 62
     7
  6
CONTINUOUS
370
 65533
390
	F
  0
LAYER
  5
e1
100
AcDbSymbolTableRecord
100
AcDbLayerTableRecord
  2
G
 70
     0
 62
     7
  6
CONTINUOUS
370
 65533
390
	F
  0
LAYER
  5
e4
100
AcDbSymbolTableRecord
100
AcDbLayerTableRecord
  2
H
 70
     0
 62
     7
  6
CONTINUOUS
370
 65533
390
	F
  0
LAYER
  5
e7
100
AcDbSymbolTableRecord
100
AcDbLayerTableRecord
  2
I
 70
     0
 62
     7
  6
CONTINUOUS
370
 65533
390
	F
  0
LAYER
  5
ea
100
AcDbSymbolTableRecord
100
AcDbLayerTableRecord
  2
J
 70
     0
 62
     7
  6
CONTINUOUS
370
 65533
390
	F
  0
LAYER
  5
ed
100
AcDbSymbolTableRecord
100
AcDbLayerTableRecord
  2
K
 70
     0
 62
     7
  6
CONTINUOUS
370
 65533
390
	F
  0
LAYER
  5
f0
100
AcDbSymbolTableRecord
100
AcDbLayerTableRecord
  2
L
 70
     0
 62
     7
  6
CONTINUOUS
370
 65533
390
	F
  0
LAYER
  5
f3
100
AcDbSymbolTableRecord
100
AcDbLayerTableRecord
  2
M
 70
     0
 62
     7
  6
CONTINUOUS
370
 65533
390
	F
  0
LAYER
  5
f6
100
AcDbSymbolTableRecord
100
AcDbLayerTableRecord
  2
N
 70
     0
 62
     7
  6
CONTINUOUS
370
 65533
390
	F
  0
ENDTAB
  0
TABLE
  2
STYLE
  5
f9
100
AcDbSymbolTable
 70
     2
  0
STYLE
  5
fc
100
AcDbSymbolTableRecord
100
AcDbTextStyleTableRecord
  2
STANDARD
 70
     0
 40
0.000000
 41
0.500000
 50
0.000000
 71
     0
 42
0.300000
  3
txt
  4

  0
STYLE
  5
ff
100
AcDbSymbolTableRecord
100
AcDbTextStyleTableRecord
  2
BIGFONT
 70
    64
 40
0.000000
 41
1.000000
 50
0.000000
 71
     0
 42
0.200000
  3

  4
bigfont
  0
ENDTAB
  0
TABLE
  2
VIEW
  5
102
100
AcDbSymbolTable
 70
     0
  0
ENDTAB
  0
TABLE
  2
UCS
  5
105
100
AcDbSymbolTable
 70
     0
  0
ENDTAB
  0
TABLE
  2
APPID
  5
108
100
AcDbSymbolTable
 70
     3
  0
APPID
  5
10b
100
AcDbSymbolTableRecord
100
AcDbRegAppTableRecord
  2
ACAD
 70
     0
  0
APPID
  5
10e
100
AcDbSymbolTableRecord
100
AcDbRegAppTableRecord
  2
CONTENTTABDATA
 70
     0
  0
APPID
  5
111
100
AcDbSymbolTableRecord
100
AcDbRegAppTableRecord
  2
CONTENTCURRENTTAB
 70
     0
  0
ENDTAB
  0
TABLE
  2
DIMSTYLE
  5
114
330
     0
100
AcDbSymbolTable
 70
     2
100
AcDbDimStyleTable
 70
     1
  0
DIMSTYLE
105
117
100
AcDbSymbolTableRecord
100
AcDbDimStyleTableRecord
  2
STANDARD
 70
     0
  3

  4

  5

  6

  7

 40
1.000000
 41
0.180000
 42
0.062500
 43
0.380000
 44
0.180000
 45
0.000000
 46
0.000000
 47
0.000000
 48
0.000000
140
0.180000
141
0.090000
142
0.000000
143
25.400000
144
1.000000
145
0.000000
146
1.000000
147
0.090000
 71
     0
 72
     0
 73
     1
 74
     1
 75
     0
 76
     0
 77
     0
 78
     0
170
     0
171
     2
172
     0
173
     0
174
     0
175
     0
176
     0
177
     0
178
     0
270
     2
271
     4
272
     4
273
     2
274
     2
340
fc
275
     0
280
     0
281
     0
282
     0
283
     1
284
     0
285
     0
286
     0
287
     3
288
     0
  0
ENDTAB
  0
TABLE
  2
BLOCK_RECORD
  5
11a
100
AcDbSymbolTable
 70
     0
  0
BLOCK_RECORD
  5
11d
100
AcDbSymbolTableRecord
100
AcDbBlockTableRecord
  2
*MODEL_SPACE
  0
BLOCK_RECORD
  5
120
100
AcDbSymbolTableRecord
100
AcDbBlockTableRecord
  2
*PAPER_SPACE
  0
ENDTAB
  0
ENDSEC
  0
SECTION
  2
BLOCKS
  0
BLOCK
  5
123
330
124
100
AcDbEntity
  8
0
100
AcDbBlockBegin
  2
*Model_Space
 70
     0
 10
0.000000
 20
0.000000
 30
0.000000
  3
*Model_Space
  1
 
  0
ENDBLK
  5
126
330
124
100
AcDbEntity
  8
0
100
AcDbBlockEnd
  0
BLOCK
  5
129
330
12a
100
AcDbEntity
 67
     1
  8
0
100
AcDbBlockBegin
  2
*Paper_Space
 70
     0
 10
0.000000
 20
0.000000
 30
0.000000
  3
*Paper_Space
  1
 
  0
ENDBLK
  5
12c
330
12d
100
AcDbEntity
 67
     1
  8
0
100
AcDbBlockEnd
  0
ENDSEC
  0
SECTION
  2
ENTITIES
  0
LINE
  5
12f
100
AcDbEntity
  8
0
370
    20
100
AcDbLine
 10
4.975000
 20
240.250000
 11
8.025000
 21
240.250000
  0
LINE
  5
132
100
AcDbEntity
  8
0
370
    20
100
AcDbLine
 10
10.025000
 20
240.250000
 11
129.925000
 21
240.250000
  0
LINE
  5
135
100
AcDbEntity
  8
0
370
    20
100
AcDbLine
 10
2.825000
 20
240.250000
 11
8.025000
 21
240.250000
  0
LINE
  5
138
100
AcDbEntity
  8
0
370
    20
100
AcDbLine
 10
10.025000
 20
240.250000
 11
129.925000
 21
240.250000
  0
LINE
  5
13b
100
AcDbEntity
  8
0
370
    20
100
AcDbLine
 10
131.925000
 20
240.250000
 11
148.925000
 21
240.250000
  0
LINE
  5
13e
100
AcDbEntity
  8
0
370
    20
100
AcDbLine
 10
39.400000
 20
271.275000
 11
39.400000
 21
274.775000
  0
LINE
  5
141
100
AcDbEntity
  8
0
370
    20
100
AcDbLine
 10
37.900000
 20
276.275000
 11
19.475000
 21
276.275000
  0
LINE
  5
144
100
AcDbEntity
  8
0
370
    20
100
AcDbLine
 10
16.975000
 20
273.775000
 11
16.975000
 21
257.750000
  0
LINE
  5
147
100
AcDbEntity
  8
0
370
    20
100
AcDbLine
 10
19.475000
 20
255.250000
 11
26.125000
 21
255.250000
  0
LINE
  5
14a
100
AcDbEntity
  8
0
370
    20
100
AcDbLine
 10
28.625000
 20
252.750000
 11
28.600000
 21
241.975000
  0
ARC
  5
14d
100
AcDbEntity
  8
0
370
    20
100
AcDbCircle
 10
19.475000
 20
273.775000
 40
2.500000
100
AcDbArc
 50
90.000000
 51
180.000000
  0
ARC
  5
150
100
AcDbEntity
  8
0
370
    20
100
AcDbCircle
 10
19.475000
 20
257.750000
 40
2.500000
100
AcDbArc
 50
180.000000
 51
270.000000
  0
ARC
  5
153
100
AcDbEntity
  8
0
370
    20
100
AcDbCircle
 10
26.125000
 20
252.750000
 40
2.500000
100
AcDbArc
 50
359.906250
 51
90.000000
  0
ARC
  5
156
100
AcDbEntity
  8
0
370
    20
100
AcDbCircle
 10
37.925000
 20
274.775000
 40
1.500000
100
AcDbArc
 50
360.000000
 51
90.000000
  0
LINE
  5
159
100
AcDbEntity
  8
0
370
    20
100
AcDbLine
 10
44.400000
 20
271.350000
 11
44.400000
 21
276.425000
  0
LINE
  5
15c
100
AcDbEntity
  8
0
370
    20
100
AcDbLine
 10
46.900000
 20
278.925000
 11
68.400000
 21
278.925000
  0
LINE
  5
15f
100
AcDbEntity
  8
0
370
    20
100
AcDbLine
 10
70.500000
 20
277.750000
 11
79.300000
 21
263.675000
  0
LINE
  5
162
100
AcDbEntity
  8
0
370
    20
100
AcDbLine
 10
81.400000
 20
262.525000
 11
130.525000
 21
262.550000
  0
ARC
  5
165
100
AcDbEntity
  8
0
370
    20
100
AcDbCircle
 10
46.900000
 20
276.425000
 40
2.500000
100
AcDbArc
 50
90.000000
 51
180.000000
  0
ARC
  5
168
100
AcDbEntity
  8
0
370
    20
100
AcDbCircle
 10
68.425000
 20
276.450000
 40
2.475000
100
AcDbArc
 50
31.968750
 51
90.000000
  0
ARC
  5
16b
100
AcDbEntity
  8
0
370
    20
100
AcDbCircle
 10
81.400000
 20
265.000000
 40
2.475000
100
AcDbArc
 50
212.046875
 51
270.015625
  0
LINE
  5
16e
100
AcDbEntity
  8
0
370
    20
100
AcDbLine
 10
132.525000
 20
262.550000
 11
139.250000
 21
262.575000
  0
LINE
  5
171
100
AcDbEntity
  8
0
370
    20
100
AcDbLine
 10
141.750000
 20
260.100000
 11
141.850000
 21
241.975000
  0
ARC
  5
174
100
AcDbEntity
  8
0
370
    20
100
AcDbCircle
 10
139.250000
 20
260.075000
 40
2.500000
100
AcDbArc
 50
0.343750
 51
90.296875
  0
LINE
  5
177
100
AcDbEntity
  8
0
370
    80
100
AcDbLine
 10
28.600000
 20
241.975000
 11
28.600000
 21
238.850000
  0
ARC
  5
17a
100
AcDbEntity
  8
0
  6
DOT
 62
     7
370
     0
100
AcDbCircle
 10
28.600000
 20
240.250000
 40
3.775000
100
AcDbArc
 50
180.000000
 51
360.000000
  0
ARC
  5
17d
100
AcDbEntity
  8
0
  6
DOT
 62
     7
370
     0
100
AcDbCircle
 10
28.600000
 20
240.250000
 40
7.750000
100
AcDbArc
 50
180.000000
 51
360.000000
  0
ARC
  5
180
100
AcDbEntity
  8
0
  6
DOT
 62
     7
370
     0
100
AcDbCircle
 10
28.600000
 20
240.250000
 40
13.675000
100
AcDbArc
 50
180.000000
 51
360.000000
  0
ARC
  5
183
100
AcDbEntity
  8
0
370
     0
100
AcDbCircle
 10
64.475000
 20
240.175000
 40
35.725000
100
AcDbArc
 50
180.000000
 51
211.734375
  0
HATCH
  5
186
330
F6
100
AcDbEntity
  8
0
100
AcDbHatch
 10
0.0
 20
0.0
 30
0.0
210
0.0
220
0.0
230
1.0
  2
SOLID
 70
     1
 71
     0
 91
     1
 92
     7
 72
     0
 73
     1
 93
     4
 10
34.100000
 20
221.375000
 10
32.750000
 20
222.875000
 10
33.275000
 20
222.700000
 10
33.350000
 20
223.250000
 97
     1
330
189
 75
     0
 76
     1
 47
0.651316
 98
     1
 10
0.0
 20
0.0
  0
LWPOLYLINE
  5
189
330
F6
100
AcDbEntity
  8
0
100
AcDbPolyline
 90
     4
 70
     1
 10
34.100000
 20
221.375000
 10
32.750000
 20
222.875000
 10
33.275000
 20
222.700000
 10
33.350000
 20
223.250000
  0
ARC
  5
194
100
AcDbEntity
  8
0
370
     0
100
AcDbCircle
 10
75.350000
 20
268.575000
 40
54.650000
100
AcDbArc
 50
211.281250
 51
230.718750
  0
HATCH
  5
197
330
F6
100
AcDbEntity
  8
0
100
AcDbHatch
 10
0.0
 20
0.0
 30
0.0
210
0.0
220
0.0
230
1.0
  2
SOLID
 70
     1
 71
     0
 91
     1
 92
     7
 72
     0
 73
     1
 93
     4
 10
40.750000
 20
226.275000
 10
39.000000
 20
227.275000
 10
39.550000
 20
227.275000
 10
39.425000
 20
227.800000
 97
     1
330
19a
 75
     0
 76
     1
 47
0.651316
 98
     1
 10
0.0
 20
0.0
  0
LWPOLYLINE
  5
19a
330
F6
100
AcDbEntity
  8
0
100
AcDbPolyline
 90
     4
 70
     1
 10
40.750000
 20
226.275000
 10
39.000000
 20
227.275000
 10
39.550000
 20
227.275000
 10
39.425000
 20
227.800000
  0
ARC
  5
1a5
100
AcDbEntity
  8
0
370
     0
100
AcDbCircle
 10
50.500000
 20
272.575000
 40
39.100000
100
AcDbArc
 50
236.093750
 51
262.187500
  0
HATCH
  5
1a8
330
F6
100
AcDbEntity
  8
0
100
AcDbHatch
 10
0.0
 20
0.0
 30
0.0
210
0.0
220
0.0
230
1.0
  2
SOLID
 70
     1
 71
     0
 91
     1
 92
     7
 72
     0
 73
     1
 93
     4
 10
45.175000
 20
233.850000
 10
43.175000
 20
233.775000
 10
43.625000
 20
234.075000
 10
43.250000
 20
234.475000
 97
     1
330
1ab
 75
     0
 76
     1
 47
0.651316
 98
     1
 10
0.0
 20
0.0
  0
LWPOLYLINE
  5
1ab
330
F6
100
AcDbEntity
  8
0
100
AcDbPolyline
 90
     4
 70
     1
 10
45.175000
 20
233.850000
 10
43.175000
 20
233.775000
 10
43.625000
 20
234.075000
 10
43.250000
 20
234.475000
  0
ARC
  5
1b6
100
AcDbEntity
  8
0
370
     0
100
AcDbCircle
 10
-7.200000
 20
240.250000
 40
35.725000
100
AcDbArc
 50
328.250000
 51
360.000000
  0
HATCH
  5
1b9
330
F6
100
AcDbEntity
  8
0
100
AcDbHatch
 10
0.0
 20
0.0
 30
0.0
210
0.0
220
0.0
230
1.0
  2
SOLID
 70
     1
 71
     0
 91
     1
 92
     7
 72
     0
 73
     1
 93
     4
 10
23.175000
 20
221.450000
 10
23.900000
 20
223.325000
 10
23.975000
 20
222.775000
 10
24.500000
 20
222.950000
 97
     1
330
1bc
 75
     0
 76
     1
 47
0.651316
 98
     1
 10
0.0
 20
0.0
  0
LWPOLYLINE
  5
1bc
330
F6
100
AcDbEntity
  8
0
100
AcDbPolyline
 90
     4
 70
     1
 10
23.175000
 20
221.450000
 10
23.900000
 20
223.325000
 10
23.975000
 20
222.775000
 10
24.500000
 20
222.950000
  0
ARC
  5
1c7
100
AcDbEntity
  8
0
370
     0
100
AcDbCircle
 10
-18.250000
 20
268.400000
 40
54.650000
100
AcDbArc
 50
309.281250
 51
328.734375
  0
HATCH
  5
1ca
330
F6
100
AcDbEntity
  8
0
100
AcDbHatch
 10
0.0
 20
0.0
 30
0.0
210
0.0
220
0.0
230
1.0
  2
SOLID
 70
     1
 71
     0
 91
     1
 92
     7
 72
     0
 73
     1
 93
     4
 10
16.350000
 20
226.100000
 10
17.650000
 20
227.625000
 10
17.525000
 20
227.100000
 10
18.075000
 20
227.100000
 97
     1
330
1cd
 75
     0
 76
     1
 47
0.651316
 98
     1
 10
0.0
 20
0.0
  0
LWPOLYLINE
  5
1cd
330
F6
100
AcDbEntity
  8
0
100
AcDbPolyline
 90
     4
 70
     1
 10
16.350000
 20
226.100000
 10
17.650000
 20
227.625000
 10
17.525000
 20
227.100000
 10
18.075000
 20
227.100000
  0
ARC
  5
1d8
100
AcDbEntity
  8
0
370
     0
100
AcDbCircle
 10
6.775000
 20
272.725000
 40
39.100000
100
AcDbArc
 50
277.812500
 51
303.875000
  0
HATCH
  5
1db
330
F6
100
AcDbEntity
  8
0
100
AcDbHatch
 10
0.0
 20
0.0
 30
0.0
210
0.0
220
0.0
230
1.0
  2
SOLID
 70
     1
 71
     0
 91
     1
 92
     7
 72
     0
 73
     1
 93
     4
 10
12.100000
 20
234.000000
 10
14.000000
 20
234.625000
 10
13.625000
 20
234.225000
 10
14.075000
 20
233.925000
 97
     1
330
1de
 75
     0
 76
     1
 47
0.651316
 98
     1
 10
0.0
 20
0.0
  0
LWPOLYLINE
  5
1de
330
F6
100
AcDbEntity
  8
0
100
AcDbPolyline
 90
     4
 70
     1
 10
12.100000
 20
234.000000
 10
14.000000
 20
234.625000
 10
13.625000
 20
234.225000
 10
14.075000
 20
233.925000
  0
LINE
  5
1e9
100
AcDbEntity
  8
0
370
    20
100
AcDbLine
 10
50.300000
 20
245.725000
 11
50.300000
 21
241.975000
  0
LINE
  5
1ec
100
AcDbEntity
  8
0
370
    80
100
AcDbLine
 10
50.300000
 20
241.975000
 11
50.300000
 21
238.850000
  0
LINE
  5
1ef
100
AcDbEntity
  8
0
370
    20
100
AcDbLine
 10
57.600000
 20
245.725000
 11
57.600000
 21
241.975000
  0
LINE
  5
1f2
100
AcDbEntity
  8
0
370
    80
100
AcDbLine
 10
57.600000
 20
241.975000
 11
57.600000
 21
238.850000
  0
LINE
  5
1f5
100
AcDbEntity
  8
0
370
    20
100
AcDbLine
 10
64.900000
 20
245.725000
 11
64.900000
 21
241.975000
  0
LINE
  5
1f8
100
AcDbEntity
  8
0
370
    80
100
AcDbLine
 10
64.900000
 20
241.975000
 11
64.900000
 21
238.850000
  0
LINE
  5
1fb
100
AcDbEntity
  8
0
370
    20
100
AcDbLine
 10
72.200000
 20
245.725000
 11
72.200000
 21
241.975000
  0
LINE
  5
1fe
100
AcDbEntity
  8
0
370
    80
100
AcDbLine
 10
72.200000
 20
241.975000
 11
72.200000
 21
238.850000
  0
LINE
  5
201
100
AcDbEntity
  8
0
370
    20
100
AcDbLine
 10
79.500000
 20
245.725000
 11
79.500000
 21
241.975000
  0
LINE
  5
204
100
AcDbEntity
  8
0
370
    80
100
AcDbLine
 10
79.500000
 20
241.975000
 11
79.500000
 21
238.850000
  0
LINE
  5
207
100
AcDbEntity
  8
0
370
    20
100
AcDbLine
 10
86.800000
 20
245.725000
 11
86.800000
 21
241.975000
  0
LINE
  5
20a
100
AcDbEntity
  8
0
370
    80
100
AcDbLine
 10
86.800000
 20
241.975000
 11
86.800000
 21
238.850000
  0
LINE
  5
20d
100
AcDbEntity
  8
0
370
    20
100
AcDbLine
 10
94.100000
 20
245.725000
 11
94.100000
 21
241.975000
  0
LINE
  5
210
100
AcDbEntity
  8
0
370
    80
100
AcDbLine
 10
94.100000
 20
241.975000
 11
94.100000
 21
238.850000
  0
LINE
  5
213
100
AcDbEntity
  8
0
370
    20
100
AcDbLine
 10
101.400000
 20
245.725000
 11
101.400000
 21
241.975000
  0
LINE
  5
216
100
AcDbEntity
  8
0
370
    80
100
AcDbLine
 10
101.400000
 20
241.975000
 11
101.400000
 21
238.850000
  0
LINE
  5
219
100
AcDbEntity
  8
0
370
    20
100
AcDbLine
 10
108.700000
 20
245.725000
 11
108.700000
 21
241.975000
  0
LINE
  5
21c
100
AcDbEntity
  8
0
370
    80
100
AcDbLine
 10
108.700000
 20
241.975000
 11
108.700000
 21
238.850000
  0
LINE
  5
21f
100
AcDbEntity
  8
0
370
    20
100
AcDbLine
 10
116.000000
 20
245.725000
 11
116.000000
 21
241.975000
  0
LINE
  5
222
100
AcDbEntity
  8
0
370
    80
100
AcDbLine
 10
116.000000
 20
241.975000
 11
116.000000
 21
238.850000
  0
LINE
  5
225
100
AcDbEntity
  8
0
370
    20
100
AcDbLine
 10
123.300000
 20
245.725000
 11
123.300000
 21
241.975000
  0
LINE
  5
228
100
AcDbEntity
  8
0
370
    80
100
AcDbLine
 10
123.300000
 20
241.975000
 11
123.300000
 21
238.850000
  0
LINE
  5
22b
100
AcDbEntity
  8
0
370
    80
100
AcDbLine
 10
141.850000
 20
241.975000
 11
141.850000
 21
238.850000
  0
LWPOLYLINE
  5
22e
100
AcDbEntity
  8
0
100
AcDbPolyline
 90
     3
 70
     0
 10
130.800000
 20
266.000000
 10
129.800000
 20
264.000000
 10
130.800000
 20
262.000000
  0
LWPOLYLINE
  5
237
100
AcDbEntity
  8
0
100
AcDbPolyline
 90
     3
 70
     0
 10
130.800000
 20
262.000000
 10
131.800000
 20
260.000000
 10
130.800000
 20
258.000000
  0
LWPOLYLINE
  5
240
100
AcDbEntity
  8
0
100
AcDbPolyline
 90
     3
 70
     0
 10
132.800000
 20
266.000000
 10
131.800000
 20
264.000000
 10
132.800000
 20
262.000000
  0
LWPOLYLINE
  5
249
100
AcDbEntity
  8
0
100
AcDbPolyline
 90
     3
 70
     0
 10
132.800000
 20
262.000000
 10
133.800000
 20
260.000000
 10
132.800000
 20
258.000000
  0
LWPOLYLINE
  5
252
100
AcDbEntity
  8
0
100
AcDbPolyline
 90
     3
 70
     0
 10
130.800000
 20
258.000000
 10
129.800000
 20
256.000000
 10
130.800000
 20
254.000000
  0
LWPOLYLINE
  5
25b
100
AcDbEntity
  8
0
100
AcDbPolyline
 90
     3
 70
     0
 10
130.800000
 20
254.000000
 10
131.800000
 20
252.000000
 10
130.800000
 20
250.000000
  0
LWPOLYLINE
  5
264
100
AcDbEntity
  8
0
100
AcDbPolyline
 90
     3
 70
     0
 10
132.800000
 20
258.000000
 10
131.800000
 20
256.000000
 10
132.800000
 20
254.000000
  0
LWPOLYLINE
  5
26d
100
AcDbEntity
  8
0
100
AcDbPolyline
 90
     3
 70
     0
 10
132.800000
 20
254.000000
 10
133.800000
 20
252.000000
 10
132.800000
 20
250.000000
  0
LWPOLYLINE
  5
276
100
AcDbEntity
  8
0
100
AcDbPolyline
 90
     3
 70
     0
 10
130.800000
 20
250.000000
 10
129.800000
 20
248.000000
 10
130.800000
 20
246.000000
  0
LWPOLYLINE
  5
27f
100
AcDbEntity
  8
0
100
AcDbPolyline
 90
     3
 70
     0
 10
130.800000
 20
246.000000
 10
131.800000
 20
244.000000
 10
130.800000
 20
242.000000
  0
LWPOLYLINE
  5
288
100
AcDbEntity
  8
0
100
AcDbPolyline
 90
     3
 70
     0
 10
132.800000
 20
250.000000
 10
131.800000
 20
248.000000
 10
132.800000
 20
246.000000
  0
LWPOLYLINE
  5
291
100
AcDbEntity
  8
0
100
AcDbPolyline
 90
     3
 70
     0
 10
132.800000
 20
246.000000
 10
133.800000
 20
244.000000
 10
132.800000
 20
242.000000
  0
LWPOLYLINE
  5
29a
100
AcDbEntity
  8
0
100
AcDbPolyline
 90
     3
 70
     0
 10
130.800000
 20
242.000000
 10
129.800000
 20
240.000000
 10
130.800000
 20
238.000000
  0
LWPOLYLINE
  5
2a3
100
AcDbEntity
  8
0
100
AcDbPolyline
 90
     3
 70
     0
 10
130.800000
 20
238.000000
 10
131.800000
 20
236.000000
 10
130.800000
 20
234.000000
  0
LWPOLYLINE
  5
2ac
100
AcDbEntity
  8
0
100
AcDbPolyline
 90
     3
 70
     0
 10
132.800000
 20
242.000000
 10
131.800000
 20
240.000000
 10
132.800000
 20
238.000000
  0
LWPOLYLINE
  5
2b5
100
AcDbEntity
  8
0
100
AcDbPolyline
 90
     3
 70
     0
 10
132.800000
 20
238.000000
 10
133.800000
 20
236.000000
 10
132.800000
 20
234.000000
  0
LINE
  5
2be
100
AcDbEntity
  8
0
370
    20
100
AcDbLine
 10
33.875000
 20
272.475000
 11
52.450000
 21
272.475000
  0
LINE
  5
2c1
100
AcDbEntity
  8
0
370
    20
100
AcDbLine
 10
52.725000
 20
272.375000
 11
53.175000
 21
271.900000
  0
LINE
  5
2c4
100
AcDbEntity
  8
0
370
    20
100
AcDbLine
 10
53.300000
 20
271.625000
 11
53.300000
 21
255.500000
  0
LINE
  5
2c7
100
AcDbEntity
  8
0
370
    20
100
AcDbLine
 10
53.175000
 20
255.250000
 11
52.675000
 21
254.750000
  0
LINE
  5
2ca
100
AcDbEntity
  8
0
370
    20
100
AcDbLine
 10
52.425000
 20
254.625000
 11
33.925000
 21
254.625000
  0
LINE
  5
2cd
100
AcDbEntity
  8
0
370
    20
100
AcDbLine
 10
33.625000
 20
254.750000
 11
33.175000
 21
255.200000
  0
LINE
  5
2d0
100
AcDbEntity
  8
0
370
    20
100
AcDbLine
 10
33.075000
 20
255.475000
 11
33.075000
 21
271.675000
  0
LINE
  5
2d3
100
AcDbEntity
  8
0
370
    20
100
AcDbLine
 10
33.175000
 20
271.950000
 11
33.600000
 21
272.375000
  0
ARC
  5
2d6
100
AcDbEntity
  8
0
370
    20
100
AcDbCircle
 10
52.425000
 20
272.050000
 40
0.425000
100
AcDbArc
 50
45.000000
 51
90.000000
  0
ARC
  5
2d9
100
AcDbEntity
  8
0
370
    20
100
AcDbCircle
 10
52.875000
 20
271.625000
 40
0.400000
100
AcDbArc
 50
360.000000
 51
45.000000
  0
ARC
  5
2dc
100
AcDbEntity
  8
0
370
    20
100
AcDbCircle
 10
52.875000
 20
255.525000
 40
0.425000
100
AcDbArc
 50
315.000000
 51
360.000000
  0
ARC
  5
2df
100
AcDbEntity
  8
0
370
    20
100
AcDbCircle
 10
52.400000
 20
255.025000
 40
0.400000
100
AcDbArc
 50
270.000000
 51
315.000000
  0
ARC
  5
2e2
100
AcDbEntity
  8
0
370
    20
100
AcDbCircle
 10
33.925000
 20
255.050000
 40
0.425000
100
AcDbArc
 50
225.000000
 51
270.000000
  0
ARC
  5
2e5
100
AcDbEntity
  8
0
370
    20
100
AcDbCircle
 10
33.475000
 20
255.500000
 40
0.400000
100
AcDbArc
 50
180.000000
 51
225.000000
  0
ARC
  5
2e8
100
AcDbEntity
  8
0
370
    20
100
AcDbCircle
 10
33.475000
 20
271.675000
 40
0.400000
100
AcDbArc
 50
135.000000
 51
180.000000
  0
ARC
  5
2eb
100
AcDbEntity
  8
0
370
    20
100
AcDbCircle
 10
33.900000
 20
272.050000
 40
0.425000
100
AcDbArc
 50
90.000000
 51
135.000000
  0
LINE
  5
2ee
100
AcDbEntity
  8
0
370
    20
100
AcDbLine
 10
34.300000
 20
272.125000
 11
52.100000
 21
272.125000
  0
LINE
  5
2f1
100
AcDbEntity
  8
0
370
    20
100
AcDbLine
 10
52.350000
 20
272.025000
 11
52.800000
 21
271.575000
  0
LINE
  5
2f4
100
AcDbEntity
  8
0
370
    20
100
AcDbLine
 10
52.925000
 20
271.300000
 11
52.925000
 21
255.800000
  0
LINE
  5
2f7
100
AcDbEntity
  8
0
370
    20
100
AcDbLine
 10
52.800000
 20
255.575000
 11
52.325000
 21
255.100000
  0
LINE
  5
2fa
100
AcDbEntity
  8
0
370
    20
100
AcDbLine
 10
52.100000
 20
254.975000
 11
34.300000
 21
254.975000
  0
LINE
  5
2fd
100
AcDbEntity
  8
0
370
    20
100
AcDbLine
 10
34.025000
 20
255.100000
 11
33.575000
 21
255.550000
  0
LINE
  5
300
100
AcDbEntity
  8
0
370
    20
100
AcDbLine
 10
33.500000
 20
255.800000
 11
33.500000
 21
271.325000
  0
LINE
  5
303
100
AcDbEntity
  8
0
370
    20
100
AcDbLine
 10
33.575000
 20
271.600000
 11
34.025000
 21
272.025000
  0
ARC
  5
306
100
AcDbEntity
  8
0
370
    20
100
AcDbCircle
 10
52.075000
 20
271.725000
 40
0.400000
100
AcDbArc
 50
45.000000
 51
90.000000
  0
ELLIPSE
  5
309
100
AcDbEntity
  8
0
370
    20
100
AcDbEllipse
 10
52.500000
 20
271.300000
 30
0.000000
 11
0.400000
 21
-0.0000000000000000
 31
0.000000
210
0.000000
220
0.000000
230
1.000000
 40
0.937500
 41
0.000000
 42
0.816078
  0
ARC
  5
30c
100
AcDbEntity
  8
0
370
    20
100
AcDbCircle
 10
52.500000
 20
255.825000
 40
0.400000
100
AcDbArc
 50
315.000000
 51
360.000000
  0
ARC
  5
30f
100
AcDbEntity
  8
0
370
    20
100
AcDbCircle
 10
52.050000
 20
255.400000
 40
0.400000
100
AcDbArc
 50
270.000000
 51
315.000000
  0
ARC
  5
312
100
AcDbEntity
  8
0
370
    20
100
AcDbCircle
 10
34.325000
 20
255.400000
 40
0.400000
100
AcDbArc
 50
225.000000
 51
270.000000
  0
ARC
  5
315
100
AcDbEntity
  8
0
370
    20
100
AcDbCircle
 10
33.875000
 20
255.825000
 40
0.375000
100
AcDbArc
 50
180.000000
 51
228.203125
  0
ARC
  5
318
100
AcDbEntity
  8
0
370
    20
100
AcDbCircle
 10
33.900000
 20
271.325000
 40
0.400000
100
AcDbArc
 50
135.000000
 51
180.000000
  0
ARC
  5
31b
100
AcDbEntity
  8
0
370
    20
100
AcDbCircle
 10
34.300000
 20
271.725000
 40
0.400000
100
AcDbArc
 50
90.000000
 51
135.000000
  0
LWPOLYLINE
  5
31e
100
AcDbEntity
  8
0
100
AcDbPolyline
 90
     4
 70
     1
 43
0.200000
 10
34.625000
 20
271.625000
 10
51.650000
 20
271.625000
 10
52.450000
 20
270.675000
 10
34.075000
 20
270.675000
  0
LWPOLYLINE
  5
329
100
AcDbEntity
  8
0
100
AcDbPolyline
 90
     4
 70
     0
 43
0.200000
 10
34.075000
 20
270.675000
 10
34.075000
 20
255.625000
 10
52.450000
 20
255.625000
 10
52.450000
 20
270.675000
  0
LINE
  5
334
100
AcDbEntity
  8
0
370
    20
100
AcDbLine
 10
44.325000
 20
270.675000
 11
44.325000
 21
255.625000
  0
LINE
  5
337
100
AcDbEntity
  8
0
370
    20
100
AcDbLine
 10
34.075000
 20
265.600000
 11
44.400000
 21
265.600000
  0
LINE
  5
33a
100
AcDbEntity
  8
0
370
    20
100
AcDbLine
 10
44.325000
 20
260.225000
 11
34.075000
 21
260.225000
  0
HATCH
  5
33d
330
F6
100
AcDbEntity
  8
0
100
AcDbHatch
 10
0.0
 20
0.0
 30
0.0
210
0.0
220
0.0
230
1.0
  2
SOLID
 70
     1
 71
     0
 91
     1
 92
     7
 72
     0
 73
     1
 93
     4
 10
46.325000
 20
269.125000
 10
51.575000
 20
269.125000
 10
51.575000
 20
263.950000
 10
46.325000
 20
263.950000
 97
     1
330
340
 75
     0
 76
     1
 47
0.651316
 98
     1
 10
0.0
 20
0.0
  0
LWPOLYLINE
  5
340
330
F6
100
AcDbEntity
  8
0
100
AcDbPolyline
 90
     4
 70
     1
 43
0.200000
 10
46.325000
 20
269.125000
 10
51.575000
 20
269.125000
 10
51.575000
 20
263.950000
 10
46.325000
 20
263.950000
  0
LWPOLYLINE
  5
34b
100
AcDbEntity
  8
0
100
AcDbPolyline
 90
     4
 70
     1
 43
0.200000
 10
46.325000
 20
269.125000
 10
51.575000
 20
269.125000
 10
51.575000
 20
263.950000
 10
46.325000
 20
263.950000
  0
LWPOLYLINE
  5
356
100
AcDbEntity
  8
0
100
AcDbPolyline
 90
     4
 70
     1
 43
0.200000
 10
46.325000
 20
261.225000
 10
51.575000
 20
261.225000
 10
51.575000
 20
256.775000
 10
46.325000
 20
256.775000
  0
HATCH
  5
361
330
F6
100
AcDbEntity
  8
0
100
AcDbHatch
 10
0.0
 20
0.0
 30
0.0
210
0.0
220
0.0
230
1.0
  2
SOLID
 70
     1
 71
     0
 91
     1
 92
     7
 72
     0
 73
     1
 93
     4
 10
50.725000
 20
270.125000
 10
51.350000
 20
270.125000
 10
51.350000
 20
269.475000
 10
50.725000
 20
269.475000
 97
     1
330
364
 75
     0
 76
     1
 47
0.651316
 98
     1
 10
0.0
 20
0.0
  0
LWPOLYLINE
  5
364
330
F6
100
AcDbEntity
  8
0
100
AcDbPolyline
 90
     4
 70
     1
 43
0.200000
 10
50.725000
 20
270.125000
 10
51.350000
 20
270.125000
 10
51.350000
 20
269.475000
 10
50.725000
 20
269.475000
  0
LWPOLYLINE
  5
36f
100
AcDbEntity
  8
0
100
AcDbPolyline
 90
     4
 70
     1
 43
0.200000
 10
50.725000
 20
270.125000
 10
51.350000
 20
270.125000
 10
51.350000
 20
269.475000
 10
50.725000
 20
269.475000
  0
HATCH
  5
37a
330
F6
100
AcDbEntity
  8
0
100
AcDbHatch
 10
0.0
 20
0.0
 30
0.0
210
0.0
220
0.0
230
1.0
  2
SOLID
 70
     1
 71
     0
 91
     1
 92
     7
 72
     0
 73
     1
 93
     4
 10
44.975000
 20
269.550000
 10
45.750000
 20
269.550000
 10
45.750000
 20
268.825000
 10
44.975000
 20
268.825000
 97
     1
330
37d
 75
     0
 76
     1
 47
0.651316
 98
     1
 10
0.0
 20
0.0
  0
LWPOLYLINE
  5
37d
330
F6
100
AcDbEntity
  8
0
100
AcDbPolyline
 90
     4
 70
     1
 43
0.200000
 10
44.975000
 20
269.550000
 10
45.750000
 20
269.550000
 10
45.750000
 20
268.825000
 10
44.975000
 20
268.825000
  0
LWPOLYLINE
  5
388
100
AcDbEntity
  8
0
100
AcDbPolyline
 90
     4
 70
     1
 43
0.200000
 10
44.975000
 20
269.550000
 10
45.750000
 20
269.550000
 10
45.750000
 20
268.825000
 10
44.975000
 20
268.825000
  0
LINE
  5
393
100
AcDbEntity
  8
0
370
    20
100
AcDbLine
 10
44.525000
 20
270.675000
 11
44.525000
 21
255.625000
  0
HATCH
  5
396
330
F6
100
AcDbEntity
  8
0
100
AcDbHatch
 10
0.0
 20
0.0
 30
0.0
210
0.0
220
0.0
230
1.0
  2
SOLID
 70
     1
 71
     0
 91
     1
 92
     7
 72
     0
 73
     1
 93
     4
 10
44.975000
 20
268.550000
 10
45.750000
 20
268.550000
 10
45.750000
 20
267.825000
 10
44.975000
 20
267.825000
 97
     1
330
399
 75
     0
 76
     1
 47
0.651316
 98
     1
 10
0.0
 20
0.0
  0
LWPOLYLINE
  5
399
330
F6
100
AcDbEntity
  8
0
100
AcDbPolyline
 90
     4
 70
     1
 43
0.200000
 10
44.975000
 20
268.550000
 10
45.750000
 20
268.550000
 10
45.750000
 20
267.825000
 10
44.975000
 20
267.825000
  0
LWPOLYLINE
  5
3a4
100
AcDbEntity
  8
0
100
AcDbPolyline
 90
     4
 70
     1
 43
0.200000
 10
44.975000
 20
268.550000
 10
45.750000
 20
268.550000
 10
45.750000
 20
267.825000
 10
44.975000
 20
267.825000
  0
HATCH
  5
3af
330
F6
100
AcDbEntity
  8
0
100
AcDbHatch
 10
0.0
 20
0.0
 30
0.0
210
0.0
220
0.0
230
1.0
  2
SOLID
 70
     1
 71
     0
 91
     1
 92
     7
 72
     0
 73
     1
 93
     4
 10
44.975000
 20
267.550000
 10
45.750000
 20
267.550000
 10
45.750000
 20
266.825000
 10
44.975000
 20
266.825000
 97
     1
330
3b2
 75
     0
 76
     1
 47
0.651316
 98
     1
 10
0.0
 20
0.0
  0
LWPOLYLINE
  5
3b2
330
F6
100
AcDbEntity
  8
0
100
AcDbPolyline
 90
     4
 70
     1
 43
0.200000
 10
44.975000
 20
267.550000
 10
45.750000
 20
267.550000
 10
45.750000
 20
266.825000
 10
44.975000
 20
266.825000
  0
HATCH
  5
3bd
330
F6
100
AcDbEntity
  8
0
100
AcDbHatch
 10
0.0
 20
0.0
 30
0.0
210
0.0
220
0.0
230
1.0
  2
SOLID
 70
     1
 71
     0
 91
     1
 92
     7
 72
     0
 73
     1
 93
     4
 10
44.975000
 20
267.550000
 10
45.750000
 20
267.550000
 10
45.750000
 20
266.825000
 10
44.975000
 20
266.825000
 97
     1
330
3c0
 75
     0
 76
     1
 47
0.651316
 98
     1
 10
0.0
 20
0.0
  0
LWPOLYLINE
  5
3c0
330
F6
100
AcDbEntity
  8
0
100
AcDbPolyline
 90
     4
 70
     1
 43
0.200000
 10
44.975000
 20
267.550000
 10
45.750000
 20
267.550000
 10
45.750000
 20
266.825000
 10
44.975000
 20
266.825000
  0
LWPOLYLINE
  5
3cb
100
AcDbEntity
  8
0
100
AcDbPolyline
 90
     4
 70
     1
 43
0.200000
 10
44.975000
 20
267.550000
 10
45.750000
 20
267.550000
 10
45.750000
 20
266.825000
 10
44.975000
 20
266.825000
  0
HATCH
  5
3d6
330
F6
100
AcDbEntity
  8
0
100
AcDbHatch
 10
0.0
 20
0.0
 30
0.0
210
0.0
220
0.0
230
1.0
  2
SOLID
 70
     1
 71
     0
 91
     1
 92
     7
 72
     0
 73
     1
 93
     4
 10
44.975000
 20
266.550000
 10
45.750000
 20
266.550000
 10
45.750000
 20
265.825000
 10
44.975000
 20
265.825000
 97
     1
330
3d9
 75
     0
 76
     1
 47
0.651316
 98
     1
 10
0.0
 20
0.0
  0
LWPOLYLINE
  5
3d9
330
F6
100
AcDbEntity
  8
0
100
AcDbPolyline
 90
     4
 70
     1
 43
0.200000
 10
44.975000
 20
266.550000
 10
45.750000
 20
266.550000
 10
45.750000
 20
265.825000
 10
44.975000
 20
265.825000
  0
HATCH
  5
3e4
330
F6
100
AcDbEntity
  8
0
100
AcDbHatch
 10
0.0
 20
0.0
 30
0.0
210
0.0
220
0.0
230
1.0
  2
SOLID
 70
     1
 71
     0
 91
     1
 92
     7
 72
     0
 73
     1
 93
     4
 10
44.975000
 20
266.550000
 10
45.750000
 20
266.550000
 10
45.750000
 20
265.825000
 10
44.975000
 20
265.825000
 97
     1
330
3e7
 75
     0
 76
     1
 47
0.651316
 98
     1
 10
0.0
 20
0.0
  0
LWPOLYLINE
  5
3e7
330
F6
100
AcDbEntity
  8
0
100
AcDbPolyline
 90
     4
 70
     1
 43
0.200000
 10
44.975000
 20
266.550000
 10
45.750000
 20
266.550000
 10
45.750000
 20
265.825000
 10
44.975000
 20
265.825000
  0
LWPOLYLINE
  5
3f2
100
AcDbEntity
  8
0
100
AcDbPolyline
 90
     4
 70
     1
 43
0.200000
 10
44.975000
 20
266.550000
 10
45.750000
 20
266.550000
 10
45.750000
 20
265.825000
 10
44.975000
 20
265.825000
  0
HATCH
  5
3fd
330
F6
100
AcDbEntity
  8
0
100
AcDbHatch
 10
0.0
 20
0.0
 30
0.0
210
0.0
220
0.0
230
1.0
  2
SOLID
 70
     1
 71
     0
 91
     1
 92
     7
 72
     0
 73
     1
 93
     4
 10
44.975000
 20
265.550000
 10
45.750000
 20
265.550000
 10
45.750000
 20
264.825000
 10
44.975000
 20
264.825000
 97
     1
330
400
 75
     0
 76
     1
 47
0.651316
 98
     1
 10
0.0
 20
0.0
  0
LWPOLYLINE
  5
400
330
F6
100
AcDbEntity
  8
0
100
AcDbPolyline
 90
     4
 70
     1
 43
0.200000
 10
44.975000
 20
265.550000
 10
45.750000
 20
265.550000
 10
45.750000
 20
264.825000
 10
44.975000
 20
264.825000
  0
HATCH
  5
40b
330
F6
100
AcDbEntity
  8
0
100
AcDbHatch
 10
0.0
 20
0.0
 30
0.0
210
0.0
220
0.0
230
1.0
  2
SOLID
 70
     1
 71
     0
 91
     1
 92
     7
 72
     0
 73
     1
 93
     4
 10
44.975000
 20
265.550000
 10
45.750000
 20
265.550000
 10
45.750000
 20
264.825000
 10
44.975000
 20
264.825000
 97
     1
330
40e
 75
     0
 76
     1
 47
0.651316
 98
     1
 10
0.0
 20
0.0
  0
LWPOLYLINE
  5
40e
330
F6
100
AcDbEntity
  8
0
100
AcDbPolyline
 90
     4
 70
     1
 43
0.200000
 10
44.975000
 20
265.550000
 10
45.750000
 20
265.550000
 10
45.750000
 20
264.825000
 10
44.975000
 20
264.825000
  0
HATCH
  5
419
330
F6
100
AcDbEntity
  8
0
100
AcDbHatch
 10
0.0
 20
0.0
 30
0.0
210
0.0
220
0.0
230
1.0
  2
SOLID
 70
     1
 71
     0
 91
     1
 92
     7
 72
     0
 73
     1
 93
     4
 10
44.975000
 20
265.550000
 10
45.750000
 20
265.550000
 10
45.750000
 20
264.825000
 10
44.975000
 20
264.825000
 97
     1
330
41c
 75
     0
 76
     1
 47
0.651316
 98
     1
 10
0.0
 20
0.0
  0
LWPOLYLINE
  5
41c
330
F6
100
AcDbEntity
  8
0
100
AcDbPolyline
 90
     4
 70
     1
 43
0.200000
 10
44.975000
 20
265.550000
 10
45.750000
 20
265.550000
 10
45.750000
 20
264.825000
 10
44.975000
 20
264.825000
  0
LWPOLYLINE
  5
427
100
AcDbEntity
  8
0
100
AcDbPolyline
 90
     4
 70
     1
 43
0.200000
 10
44.975000
 20
265.550000
 10
45.750000
 20
265.550000
 10
45.750000
 20
264.825000
 10
44.975000
 20
264.825000
  0
HATCH
  5
432
330
F6
100
AcDbEntity
  8
0
100
AcDbHatch
 10
0.0
 20
0.0
 30
0.0
210
0.0
220
0.0
230
1.0
  2
SOLID
 70
     1
 71
     0
 91
     1
 92
     7
 72
     0
 73
     1
 93
     4
 10
44.975000
 20
262.250000
 10
45.750000
 20
262.250000
 10
45.750000
 20
261.525000
 10
44.975000
 20
261.525000
 97
     1
330
435
 75
     0
 76
     1
 47
0.651316
 98
     1
 10
0.0
 20
0.0
  0
LWPOLYLINE
  5
435
330
F6
100
AcDbEntity
  8
0
100
AcDbPolyline
 90
     4
 70
     1
 43
0.200000
 10
44.975000
 20
262.250000
 10
45.750000
 20
262.250000
 10
45.750000
 20
261.525000
 10
44.975000
 20
261.525000
  0
LWPOLYLINE
  5
440
100
AcDbEntity
  8
0
100
AcDbPolyline
 90
     4
 70
     1
 43
0.200000
 10
44.975000
 20
262.250000
 10
45.750000
 20
262.250000
 10
45.750000
 20
261.525000
 10
44.975000
 20
261.525000
  0
HATCH
  5
44b
330
F6
100
AcDbEntity
  8
0
100
AcDbHatch
 10
0.0
 20
0.0
 30
0.0
210
0.0
220
0.0
230
1.0
  2
SOLID
 70
     1
 71
     0
 91
     1
 92
     7
 72
     0
 73
     1
 93
     4
 10
44.975000
 20
259.875000
 10
45.750000
 20
259.875000
 10
45.750000
 20
259.150000
 10
44.975000
 20
259.150000
 97
     1
330
44e
 75
     0
 76
     1
 47
0.651316
 98
     1
 10
0.0
 20
0.0
  0
LWPOLYLINE
  5
44e
330
F6
100
AcDbEntity
  8
0
100
AcDbPolyline
 90
     4
 70
     1
 43
0.200000
 10
44.975000
 20
259.875000
 10
45.750000
 20
259.875000
 10
45.750000
 20
259.150000
 10
44.975000
 20
259.150000
  0
LWPOLYLINE
  5
459
100
AcDbEntity
  8
0
100
AcDbPolyline
 90
     4
 70
     1
 43
0.200000
 10
44.975000
 20
259.875000
 10
45.750000
 20
259.875000
 10
45.750000
 20
259.150000
 10
44.975000
 20
259.150000
  0
HATCH
  5
464
330
F6
100
AcDbEntity
  8
0
100
AcDbHatch
 10
0.0
 20
0.0
 30
0.0
210
0.0
220
0.0
230
1.0
  2
SOLID
 70
     1
 71
     0
 91
     1
 92
     7
 72
     0
 73
     1
 93
     4
 10
44.975000
 20
258.725000
 10
45.750000
 20
258.725000
 10
45.750000
 20
258.025000
 10
44.975000
 20
258.025000
 97
     1
330
467
 75
     0
 76
     1
 47
0.651316
 98
     1
 10
0.0
 20
0.0
  0
LWPOLYLINE
  5
467
330
F6
100
AcDbEntity
  8
0
100
AcDbPolyline
 90
     4
 70
     1
 43
0.200000
 10
44.975000
 20
258.725000
 10
45.750000
 20
258.725000
 10
45.750000
 20
258.025000
 10
44.975000
 20
258.025000
  0
LWPOLYLINE
  5
472
100
AcDbEntity
  8
0
100
AcDbPolyline
 90
     4
 70
     1
 43
0.200000
 10
44.975000
 20
258.725000
 10
45.750000
 20
258.725000
 10
45.750000
 20
258.025000
 10
44.975000
 20
258.025000
  0
HATCH
  5
47d
330
F6
100
AcDbEntity
  8
0
100
AcDbHatch
 10
0.0
 20
0.0
 30
0.0
210
0.0
220
0.0
230
1.0
  2
SOLID
 70
     1
 71
     0
 91
     1
 92
     7
 72
     0
 73
     1
 93
     4
 10
44.975000
 20
257.650000
 10
45.750000
 20
257.650000
 10
45.750000
 20
256.925000
 10
44.975000
 20
256.925000
 97
     1
330
480
 75
     0
 76
     1
 47
0.651316
 98
     1
 10
0.0
 20
0.0
  0
LWPOLYLINE
  5
480
330
F6
100
AcDbEntity
  8
0
100
AcDbPolyline
 90
     4
 70
     1
 43
0.200000
 10
44.975000
 20
257.650000
 10
45.750000
 20
257.650000
 10
45.750000
 20
256.925000
 10
44.975000
 20
256.925000
  0
HATCH
  5
48b
330
F6
100
AcDbEntity
  8
0
100
AcDbHatch
 10
0.0
 20
0.0
 30
0.0
210
0.0
220
0.0
230
1.0
  2
SOLID
 70
     1
 71
     0
 91
     1
 92
     7
 72
     0
 73
     1
 93
     4
 10
44.975000
 20
257.650000
 10
45.750000
 20
257.650000
 10
45.750000
 20
256.925000
 10
44.975000
 20
256.925000
 97
     1
330
48e
 75
     0
 76
     1
 47
0.651316
 98
     1
 10
0.0
 20
0.0
  0
LWPOLYLINE
  5
48e
330
F6
100
AcDbEntity
  8
0
100
AcDbPolyline
 90
     4
 70
     1
 43
0.200000
 10
44.975000
 20
257.650000
 10
45.750000
 20
257.650000
 10
45.750000
 20
256.925000
 10
44.975000
 20
256.925000
  0
LWPOLYLINE
  5
499
100
AcDbEntity
  8
0
100
AcDbPolyline
 90
     4
 70
     1
 43
0.200000
 10
44.975000
 20
257.650000
 10
45.750000
 20
257.650000
 10
45.750000
 20
256.925000
 10
44.975000
 20
256.925000
  0
HATCH
  5
4a4
330
F6
100
AcDbEntity
  8
0
100
AcDbHatch
 10
0.0
 20
0.0
 30
0.0
210
0.0
220
0.0
230
1.0
  2
SOLID
 70
     1
 71
     0
 91
     1
 92
     7
 72
     0
 73
     1
 93
     4
 10
46.550000
 20
261.000000
 10
51.300000
 20
261.000000
 10
51.300000
 20
256.975000
 10
46.550000
 20
256.975000
 97
     1
330
4a7
 75
     0
 76
     1
 47
0.651316
 98
     1
 10
0.0
 20
0.0
  0
LWPOLYLINE
  5
4a7
330
F6
100
AcDbEntity
  8
0
100
AcDbPolyline
 90
     4
 70
     1
 43
0.200000
 10
46.550000
 20
261.000000
 10
51.300000
 20
261.000000
 10
51.300000
 20
256.975000
 10
46.550000
 20
256.975000
  0
LWPOLYLINE
  5
4b2
100
AcDbEntity
  8
0
100
AcDbPolyline
 90
     4
 70
     1
 43
0.200000
 10
46.550000
 20
261.000000
 10
51.300000
 20
261.000000
 10
51.300000
 20
256.975000
 10
46.550000
 20
256.975000
  0
LINE
  5
4bd
100
AcDbEntity
  8
0
370
    20
100
AcDbLine
 10
48.925000
 20
256.975000
 11
48.925000
 21
261.000000
  0
LINE
  5
4c0
100
AcDbEntity
  8
0
370
    20
100
AcDbLine
 10
51.250000
 20
258.975000
 11
46.550000
 21
259.000000
  0
LINE
  5
4c3
100
AcDbEntity
  8
0
370
    20
100
AcDbLine
 10
51.250000
 20
259.925000
 11
46.550000
 21
259.950000
  0
LINE
  5
4c6
100
AcDbEntity
  8
0
370
    20
100
AcDbLine
 10
51.250000
 20
257.950000
 11
46.550000
 21
257.950000
  0
LINE
  5
4c9
100
AcDbEntity
  8
0
370
    20
100
AcDbLine
 10
47.850000
 20
256.975000
 11
47.850000
 21
261.000000
  0
LINE
  5
4cc
100
AcDbEntity
  8
0
370
    20
100
AcDbLine
 10
50.175000
 20
256.975000
 11
50.175000
 21
261.000000
  0
LWPOLYLINE
  5
4cf
100
AcDbEntity
  8
0
100
AcDbPolyline
 90
     4
 70
     1
 43
0.200000
 10
34.350000
 20
259.500000
 10
34.675000
 20
259.500000
 10
34.675000
 20
256.200000
 10
34.350000
 20
256.200000
  0
LWPOLYLINE
  5
4da
100
AcDbEntity
  8
0
100
AcDbPolyline
 90
     4
 70
     1
 43
0.200000
 10
43.700000
 20
259.500000
 10
44.025000
 20
259.500000
 10
44.025000
 20
256.200000
 10
43.700000
 20
256.200000
  0
LWPOLYLINE
  5
4e5
100
AcDbEntity
  8
0
100
AcDbPolyline
 90
     4
 70
     1
 43
0.200000
 10
34.350000
 20
264.450000
 10
34.675000
 20
264.450000
 10
34.675000
 20
261.125000
 10
34.350000
 20
261.125000
  0
LWPOLYLINE
  5
4f0
100
AcDbEntity
  8
0
100
AcDbPolyline
 90
     4
 70
     1
 43
0.200000
 10
43.700000
 20
264.450000
 10
44.025000
 20
264.450000
 10
44.025000
 20
261.125000
 10
43.700000
 20
261.125000
  0
LWPOLYLINE
  5
4fb
100
AcDbEntity
  8
0
100
AcDbPolyline
 90
     4
 70
     1
 43
0.200000
 10
34.350000
 20
269.725000
 10
34.675000
 20
269.725000
 10
34.675000
 20
266.400000
 10
34.350000
 20
266.400000
  0
LWPOLYLINE
  5
506
100
AcDbEntity
  8
0
100
AcDbPolyline
 90
     4
 70
     1
 43
0.200000
 10
43.700000
 20
269.725000
 10
44.025000
 20
269.725000
 10
44.025000
 20
266.400000
 10
43.700000
 20
266.400000
  0
HATCH
  5
511
330
F6
100
AcDbEntity
  8
0
100
AcDbHatch
 10
0.0
 20
0.0
 30
0.0
210
0.0
220
0.0
230
1.0
  2
SOLID
 70
     1
 71
     0
 91
     1
 92
     7
 72
     0
 73
     1
 93
     4
 10
35.375000
 20
259.025000
 10
43.275000
 20
259.025000
 10
43.275000
 20
256.775000
 10
35.375000
 20
256.775000
 97
     1
330
514
 75
     0
 76
     1
 47
0.651316
 98
     1
 10
0.0
 20
0.0
  0
LWPOLYLINE
  5
514
330
F6
100
AcDbEntity
  8
0
100
AcDbPolyline
 90
     4
 70
     1
 43
0.200000
 10
35.375000
 20
259.025000
 10
43.275000
 20
259.025000
 10
43.275000
 20
256.775000
 10
35.375000
 20
256.775000
  0
LWPOLYLINE
  5
51f
100
AcDbEntity
  8
0
100
AcDbPolyline
 90
     4
 70
     1
 43
0.200000
 10
35.375000
 20
259.025000
 10
43.275000
 20
259.025000
 10
43.275000
 20
256.775000
 10
35.375000
 20
256.775000
  0
CIRCLE
  5
52a
100
AcDbEntity
  8
0
370
    20
100
AcDbCircle
 10
35.050000
 20
256.925000
 40
0.250000
  0
LWPOLYLINE
  5
52d
100
AcDbEntity
  8
0
100
AcDbPolyline
 90
     4
 70
     1
 43
0.200000
 10
35.525000
 20
264.250000
 10
42.850000
 20
264.250000
 10
42.850000
 20
261.025000
 10
35.525000
 20
261.025000
  0
HATCH
  5
538
330
F6
100
AcDbEntity
  8
0
100
AcDbHatch
 10
0.0
 20
0.0
 30
0.0
210
0.0
220
0.0
230
1.0
  2
SOLID
 70
     1
 71
     0
 91
     1
 92
     7
 72
     0
 73
     1
 93
     4
 10
37.900000
 20
261.950000
 10
40.750000
 20
261.950000
 10
40.750000
 20
261.400000
 10
37.900000
 20
261.400000
 97
     1
330
53b
 75
     0
 76
     1
 47
0.651316
 98
     1
 10
0.0
 20
0.0
  0
LWPOLYLINE
  5
53b
330
F6
100
AcDbEntity
  8
0
100
AcDbPolyline
 90
     4
 70
     1
 43
0.200000
 10
37.900000
 20
261.950000
 10
40.750000
 20
261.950000
 10
40.750000
 20
261.400000
 10
37.900000
 20
261.400000
  0
LWPOLYLINE
  5
546
100
AcDbEntity
  8
0
100
AcDbPolyline
 90
     4
 70
     1
 43
0.200000
 10
37.900000
 20
261.950000
 10
40.750000
 20
261.950000
 10
40.750000
 20
261.400000
 10
37.900000
 20
261.400000
  0
LINE
  5
551
100
AcDbEntity
  8
0
370
    20
100
AcDbLine
 10
35.525000
 20
261.500000
 11
37.850000
 21
261.500000
  0
LINE
  5
554
100
AcDbEntity
  8
0
370
    20
100
AcDbLine
 10
40.825000
 20
261.500000
 11
42.850000
 21
261.500000
  0
LINE
  5
557
100
AcDbEntity
  8
0
370
    20
100
AcDbLine
 10
36.675000
 20
264.250000
 11
36.675000
 21
260.975000
  0
LINE
  5
55a
100
AcDbEntity
  8
0
370
    20
100
AcDbLine
 10
41.775000
 20
264.250000
 11
41.775000
 21
260.975000
  0
HATCH
  5
55d
330
F6
100
AcDbEntity
  8
0
100
AcDbHatch
 10
0.0
 20
0.0
 30
0.0
210
0.0
220
0.0
230
1.0
  2
SOLID
 70
     1
 71
     0
 91
     1
 92
     7
 72
     0
 73
     1
 93
     4
 10
46.675000
 20
268.775000
 10
51.250000
 20
268.775000
 10
51.250000
 20
264.200000
 10
46.675000
 20
264.200000
 97
     1
330
560
 75
     0
 76
     1
 47
0.651316
 98
     1
 10
0.0
 20
0.0
  0
LWPOLYLINE
  5
560
330
F6
100
AcDbEntity
  8
0
100
AcDbPolyline
 90
     4
 70
     1
 43
0.200000
 10
46.675000
 20
268.775000
 10
51.250000
 20
268.775000
 10
51.250000
 20
264.200000
 10
46.675000
 20
264.200000
  0
HATCH
  5
56b
330
F6
100
AcDbEntity
  8
0
100
AcDbHatch
 10
0.0
 20
0.0
 30
0.0
210
0.0
220
0.0
230
1.0
  2
SOLID
 70
     1
 71
     0
 91
     1
 92
     7
 72
     0
 73
     1
 93
     4
 10
46.675000
 20
268.775000
 10
51.250000
 20
268.775000
 10
51.250000
 20
264.200000
 10
46.675000
 20
264.200000
 97
     1
330
56e
 75
     0
 76
     1
 47
0.651316
 98
     1
 10
0.0
 20
0.0
  0
LWPOLYLINE
  5
56e
330
F6
100
AcDbEntity
  8
0
100
AcDbPolyline
 90
     4
 70
     1
 43
0.200000
 10
46.675000
 20
268.775000
 10
51.250000
 20
268.775000
 10
51.250000
 20
264.200000
 10
46.675000
 20
264.200000
  0
LWPOLYLINE
  5
579
100
AcDbEntity
  8
0
100
AcDbPolyline
 90
     4
 70
     1
 43
0.200000
 10
46.675000
 20
268.775000
 10
51.250000
 20
268.775000
 10
51.250000
 20
264.200000
 10
46.675000
 20
264.200000
  0
LWPOLYLINE
  5
584
100
AcDbEntity
  8
0
100
AcDbPolyline
 90
     4
 70
     1
 43
0.200000
 10
35.900000
 20
266.625000
 10
38.350000
 20
266.625000
 10
38.350000
 20
266.200000
 10
35.900000
 20
266.200000
  0
LWPOLYLINE
  5
58f
100
AcDbEntity
  8
0
100
AcDbPolyline
 90
     4
 70
     1
 43
0.200000
 10
39.150000
 20
266.625000
 10
40.925000
 20
266.625000
 10
40.925000
 20
266.150000
 10
39.150000
 20
266.150000
  0
LWPOLYLINE
  5
59a
100
AcDbEntity
  8
0
100
AcDbPolyline
 90
     4
 70
     1
 43
0.200000
 10
42.100000
 20
266.625000
 10
42.600000
 20
266.625000
 10
42.600000
 20
266.150000
 10
42.100000
 20
266.150000
  0
CIRCLE
  5
5a5
100
AcDbEntity
  8
0
370
    20
100
AcDbCircle
 10
36.125000
 20
269.100000
 40
0.375000
  0
CIRCLE
  5
5a8
100
AcDbEntity
  8
0
370
    20
100
AcDbCircle
 10
37.525000
 20
269.100000
 40
0.375000
  0
CIRCLE
  5
5ab
100
AcDbEntity
  8
0
370
    20
100
AcDbCircle
 10
39.775000
 20
269.100000
 40
0.375000
  0
CIRCLE
  5
5ae
100
AcDbEntity
  8
0
370
    20
100
AcDbCircle
 10
41.025000
 20
269.100000
 40
0.375000
  0
CIRCLE
  5
5b1
100
AcDbEntity
  8
0
370
    20
100
AcDbCircle
 10
42.275000
 20
269.100000
 40
0.375000
  0
HATCH
  5
5b4
330
F6
100
AcDbEntity
  8
0
100
AcDbHatch
 10
0.0
 20
0.0
 30
0.0
210
0.0
220
0.0
230
1.0
  2
SOLID
 70
     1
 71
     0
 91
     1
 92
     7
 72
     0
 73
     1
 93
    26
 10
36.300000
 20
268.025000
 10
36.300000
 20
267.975000
 10
36.300000
 20
267.950000
 10
36.275000
 20
267.925000
 10
36.225000
 20
267.900000
 10
36.225000
 20
267.850000
 10
36.175000
 20
267.850000
 10
36.150000
 20
267.850000
 10
36.125000
 20
267.825000
 10
36.075000
 20
267.850000
 10
36.025000
 20
267.850000
 10
36.000000
 20
267.850000
 10
35.975000
 20
267.900000
 10
35.950000
 20
267.925000
 10
35.925000
 20
267.950000
 10
35.925000
 20
268.100000
 10
35.950000
 20
268.125000
 10
35.975000
 20
268.150000
 10
36.000000
 20
268.200000
 10
36.025000
 20
268.200000
 10
36.175000
 20
268.200000
 10
36.225000
 20
268.200000
 10
36.225000
 20
268.150000
 10
36.275000
 20
268.125000
 10
36.300000
 20
268.100000
 10
36.300000
 20
268.075000
 97
     1
330
5b7
 75
     0
 76
     1
 47
0.651316
 98
     1
 10
0.0
 20
0.0
  0
LWPOLYLINE
  5
5b7
330
F6
100
AcDbEntity
  8
0
100
AcDbPolyline
 90
    27
 70
     0
 43
0.200000
 10
36.300000
 20
268.025000
 10
36.300000
 20
267.975000
 10
36.300000
 20
267.950000
 10
36.275000
 20
267.925000
 10
36.225000
 20
267.900000
 10
36.225000
 20
267.850000
 10
36.175000
 20
267.850000
 10
36.150000
 20
267.850000
 10
36.125000
 20
267.825000
 10
36.075000
 20
267.850000
 10
36.025000
 20
267.850000
 10
36.000000
 20
267.850000
 10
35.975000
 20
267.900000
 10
35.950000
 20
267.925000
 10
35.925000
 20
267.950000
 10
35.925000
 20
268.100000
 10
35.950000
 20
268.125000
 10
35.975000
 20
268.150000
 10
36.000000
 20
268.200000
 10
36.025000
 20
268.200000
 10
36.175000
 20
268.200000
 10
36.225000
 20
268.200000
 10
36.225000
 20
268.150000
 10
36.275000
 20
268.125000
 10
36.300000
 20
268.100000
 10
36.300000
 20
268.075000
 10
36.300000
 20
268.025000
  0
CIRCLE
  5
5f0
100
AcDbEntity
  8
0
370
    20
100
AcDbCircle
 10
36.125000
 20
268.025000
 40
0.200000
  0
HATCH
  5
5f3
330
F6
100
AcDbEntity
  8
0
100
AcDbHatch
 10
0.0
 20
0.0
 30
0.0
210
0.0
220
0.0
230
1.0
  2
SOLID
 70
     1
 71
     0
 91
     1
 92
     7
 72
     0
 73
     1
 93
    26
 10
37.675000
 20
268.025000
 10
37.675000
 20
267.975000
 10
37.675000
 20
267.950000
 10
37.650000
 20
267.925000
 10
37.625000
 20
267.900000
 10
37.600000
 20
267.850000
 10
37.575000
 20
267.850000
 10
37.525000
 20
267.850000
 10
37.500000
 20
267.825000
 10
37.450000
 20
267.850000
 10
37.400000
 20
267.850000
 10
37.375000
 20
267.850000
 10
37.350000
 20
267.900000
 10
37.325000
 20
267.925000
 10
37.300000
 20
267.950000
 10
37.300000
 20
268.100000
 10
37.325000
 20
268.125000
 10
37.350000
 20
268.150000
 10
37.375000
 20
268.200000
 10
37.400000
 20
268.200000
 10
37.575000
 20
268.200000
 10
37.600000
 20
268.200000
 10
37.625000
 20
268.150000
 10
37.650000
 20
268.125000
 10
37.675000
 20
268.100000
 10
37.675000
 20
268.075000
 97
     1
330
5f6
 75
     0
 76
     1
 47
0.651316
 98
     1
 10
0.0
 20
0.0
  0
LWPOLYLINE
  5
5f6
330
F6
100
AcDbEntity
  8
0
100
AcDbPolyline
 90
    27
 70
     0
 43
0.200000
 10
37.675000
 20
268.025000
 10
37.675000
 20
267.975000
 10
37.675000
 20
267.950000
 10
37.650000
 20
267.925000
 10
37.625000
 20
267.900000
 10
37.600000
 20
267.850000
 10
37.575000
 20
267.850000
 10
37.525000
 20
267.850000
 10
37.500000
 20
267.825000
 10
37.450000
 20
267.850000
 10
37.400000
 20
267.850000
 10
37.375000
 20
267.850000
 10
37.350000
 20
267.900000
 10
37.325000
 20
267.925000
 10
37.300000
 20
267.950000
 10
37.300000
 20
268.100000
 10
37.325000
 20
268.125000
 10
37.350000
 20
268.150000
 10
37.375000
 20
268.200000
 10
37.400000
 20
268.200000
 10
37.575000
 20
268.200000
 10
37.600000
 20
268.200000
 10
37.625000
 20
268.150000
 10
37.650000
 20
268.125000
 10
37.675000
 20
268.100000
 10
37.675000
 20
268.075000
 10
37.675000
 20
268.025000
  0
CIRCLE
  5
62f
100
AcDbEntity
  8
0
370
    20
100
AcDbCircle
 10
37.500000
 20
268.025000
 40
0.200000
  0
HATCH
  5
632
330
F6
100
AcDbEntity
  8
0
100
AcDbHatch
 10
0.0
 20
0.0
 30
0.0
210
0.0
220
0.0
230
1.0
  2
SOLID
 70
     1
 71
     0
 91
     1
 92
     7
 72
     0
 73
     1
 93
    26
 10
40.000000
 20
268.025000
 10
40.000000
 20
267.975000
 10
40.000000
 20
267.950000
 10
39.975000
 20
267.925000
 10
39.950000
 20
267.900000
 10
39.925000
 20
267.850000
 10
39.875000
 20
267.850000
 10
39.850000
 20
267.850000
 10
39.825000
 20
267.825000
 10
39.775000
 20
267.850000
 10
39.725000
 20
267.850000
 10
39.700000
 20
267.850000
 10
39.675000
 20
267.900000
 10
39.650000
 20
267.925000
 10
39.625000
 20
267.950000
 10
39.625000
 20
268.100000
 10
39.650000
 20
268.125000
 10
39.675000
 20
268.150000
 10
39.700000
 20
268.200000
 10
39.725000
 20
268.200000
 10
39.875000
 20
268.200000
 10
39.925000
 20
268.200000
 10
39.950000
 20
268.150000
 10
39.975000
 20
268.125000
 10
40.000000
 20
268.100000
 10
40.000000
 20
268.075000
 97
     1
330
635
 75
     0
 76
     1
 47
0.651316
 98
     1
 10
0.0
 20
0.0
  0
LWPOLYLINE
  5
635
330
F6
100
AcDbEntity
  8
0
100
AcDbPolyline
 90
    27
 70
     0
 43
0.200000
 10
40.000000
 20
268.025000
 10
40.000000
 20
267.975000
 10
40.000000
 20
267.950000
 10
39.975000
 20
267.925000
 10
39.950000
 20
267.900000
 10
39.925000
 20
267.850000
 10
39.875000
 20
267.850000
 10
39.850000
 20
267.850000
 10
39.825000
 20
267.825000
 10
39.775000
 20
267.850000
 10
39.725000
 20
267.850000
 10
39.700000
 20
267.850000
 10
39.675000
 20
267.900000
 10
39.650000
 20
267.925000
 10
39.625000
 20
267.950000
 10
39.625000
 20
268.100000
 10
39.650000
 20
268.125000
 10
39.675000
 20
268.150000
 10
39.700000
 20
268.200000
 10
39.725000
 20
268.200000
 10
39.875000
 20
268.200000
 10
39.925000
 20
268.200000
 10
39.950000
 20
268.150000
 10
39.975000
 20
268.125000
 10
40.000000
 20
268.100000
 10
40.000000
 20
268.075000
 10
40.000000
 20
268.025000
  0
CIRCLE
  5
66e
100
AcDbEntity
  8
0
370
    20
100
AcDbCircle
 10
39.825000
 20
268.025000
 40
0.200000
  0
HATCH
  5
671
330
F6
100
AcDbEntity
  8
0
100
AcDbHatch
 10
0.0
 20
0.0
 30
0.0
210
0.0
220
0.0
230
1.0
  2
SOLID
 70
     1
 71
     0
 91
     1
 92
     7
 72
     0
 73
     1
 93
    26
 10
41.225000
 20
268.025000
 10
41.200000
 20
267.975000
 10
41.200000
 20
267.950000
 10
41.175000
 20
267.925000
 10
41.150000
 20
267.900000
 10
41.125000
 20
267.850000
 10
41.100000
 20
267.850000
 10
41.050000
 20
267.850000
 10
41.025000
 20
267.825000
 10
40.975000
 20
267.850000
 10
40.950000
 20
267.850000
 10
40.900000
 20
267.850000
 10
40.875000
 20
267.900000
 10
40.850000
 20
267.925000
 10
40.825000
 20
267.950000
 10
40.825000
 20
268.100000
 10
40.850000
 20
268.125000
 10
40.875000
 20
268.150000
 10
40.900000
 20
268.200000
 10
40.950000
 20
268.200000
 10
41.100000
 20
268.200000
 10
41.125000
 20
268.200000
 10
41.150000
 20
268.150000
 10
41.175000
 20
268.125000
 10
41.200000
 20
268.100000
 10
41.200000
 20
268.075000
 97
     1
330
674
 75
     0
 76
     1
 47
0.651316
 98
     1
 10
0.0
 20
0.0
  0
LWPOLYLINE
  5
674
330
F6
100
AcDbEntity
  8
0
100
AcDbPolyline
 90
    27
 70
     0
 43
0.200000
 10
41.225000
 20
268.025000
 10
41.200000
 20
267.975000
 10
41.200000
 20
267.950000
 10
41.175000
 20
267.925000
 10
41.150000
 20
267.900000
 10
41.125000
 20
267.850000
 10
41.100000
 20
267.850000
 10
41.050000
 20
267.850000
 10
41.025000
 20
267.825000
 10
40.975000
 20
267.850000
 10
40.950000
 20
267.850000
 10
40.900000
 20
267.850000
 10
40.875000
 20
267.900000
 10
40.850000
 20
267.925000
 10
40.825000
 20
267.950000
 10
40.825000
 20
268.100000
 10
40.850000
 20
268.125000
 10
40.875000
 20
268.150000
 10
40.900000
 20
268.200000
 10
40.950000
 20
268.200000
 10
41.100000
 20
268.200000
 10
41.125000
 20
268.200000
 10
41.150000
 20
268.150000
 10
41.175000
 20
268.125000
 10
41.200000
 20
268.100000
 10
41.200000
 20
268.075000
 10
41.225000
 20
268.025000
  0
CIRCLE
  5
6ad
100
AcDbEntity
  8
0
370
    20
100
AcDbCircle
 10
41.025000
 20
268.025000
 40
0.200000
  0
HATCH
  5
6b0
330
F6
100
AcDbEntity
  8
0
100
AcDbHatch
 10
0.0
 20
0.0
 30
0.0
210
0.0
220
0.0
230
1.0
  2
SOLID
 70
     1
 71
     0
 91
     1
 92
     7
 72
     0
 73
     1
 93
    26
 10
42.450000
 20
268.025000
 10
42.425000
 20
267.975000
 10
42.425000
 20
267.950000
 10
42.425000
 20
267.925000
 10
42.375000
 20
267.900000
 10
42.375000
 20
267.850000
 10
42.325000
 20
267.850000
 10
42.300000
 20
267.850000
 10
42.275000
 20
267.825000
 10
42.200000
 20
267.850000
 10
42.175000
 20
267.850000
 10
42.150000
 20
267.850000
 10
42.125000
 20
267.900000
 10
42.100000
 20
267.925000
 10
42.075000
 20
267.950000
 10
42.075000
 20
268.100000
 10
42.100000
 20
268.125000
 10
42.125000
 20
268.150000
 10
42.150000
 20
268.200000
 10
42.175000
 20
268.200000
 10
42.325000
 20
268.200000
 10
42.375000
 20
268.200000
 10
42.375000
 20
268.150000
 10
42.425000
 20
268.125000
 10
42.425000
 20
268.100000
 10
42.425000
 20
268.075000
 97
     1
330
6b3
 75
     0
 76
     1
 47
0.651316
 98
     1
 10
0.0
 20
0.0
  0
LWPOLYLINE
  5
6b3
330
F6
100
AcDbEntity
  8
0
100
AcDbPolyline
 90
    27
 70
     0
 43
0.200000
 10
42.450000
 20
268.025000
 10
42.425000
 20
267.975000
 10
42.425000
 20
267.950000
 10
42.425000
 20
267.925000
 10
42.375000
 20
267.900000
 10
42.375000
 20
267.850000
 10
42.325000
 20
267.850000
 10
42.300000
 20
267.850000
 10
42.275000
 20
267.825000
 10
42.200000
 20
267.850000
 10
42.175000
 20
267.850000
 10
42.150000
 20
267.850000
 10
42.125000
 20
267.900000
 10
42.100000
 20
267.925000
 10
42.075000
 20
267.950000
 10
42.075000
 20
268.100000
 10
42.100000
 20
268.125000
 10
42.125000
 20
268.150000
 10
42.150000
 20
268.200000
 10
42.175000
 20
268.200000
 10
42.325000
 20
268.200000
 10
42.375000
 20
268.200000
 10
42.375000
 20
268.150000
 10
42.425000
 20
268.125000
 10
42.425000
 20
268.100000
 10
42.425000
 20
268.075000
 10
42.450000
 20
268.025000
  0
CIRCLE
  5
6ec
100
AcDbEntity
  8
0
370
    20
100
AcDbCircle
 10
42.275000
 20
268.025000
 40
0.200000
  0
HATCH
  5
6ef
330
F6
100
AcDbEntity
  8
0
100
AcDbHatch
 10
0.0
 20
0.0
 30
0.0
210
0.0
220
0.0
230
1.0
  2
SOLID
 70
     1
 71
     0
 91
     1
 92
     7
 72
     0
 73
     1
 93
    26
 10
38.725000
 20
268.025000
 10
38.725000
 20
267.975000
 10
38.725000
 20
267.950000
 10
38.700000
 20
267.925000
 10
38.675000
 20
267.900000
 10
38.650000
 20
267.850000
 10
38.625000
 20
267.850000
 10
38.575000
 20
267.850000
 10
38.550000
 20
267.825000
 10
38.500000
 20
267.850000
 10
38.450000
 20
267.850000
 10
38.425000
 20
267.850000
 10
38.400000
 20
267.900000
 10
38.375000
 20
267.925000
 10
38.350000
 20
267.950000
 10
38.350000
 20
268.100000
 10
38.375000
 20
268.125000
 10
38.400000
 20
268.150000
 10
38.425000
 20
268.200000
 10
38.450000
 20
268.200000
 10
38.625000
 20
268.200000
 10
38.650000
 20
268.200000
 10
38.675000
 20
268.150000
 10
38.700000
 20
268.125000
 10
38.725000
 20
268.100000
 10
38.725000
 20
268.075000
 97
     1
330
6f2
 75
     0
 76
     1
 47
0.651316
 98
     1
 10
0.0
 20
0.0
  0
LWPOLYLINE
  5
6f2
330
F6
100
AcDbEntity
  8
0
100
AcDbPolyline
 90
    27
 70
     0
 43
0.200000
 10
38.725000
 20
268.025000
 10
38.725000
 20
267.975000
 10
38.725000
 20
267.950000
 10
38.700000
 20
267.925000
 10
38.675000
 20
267.900000
 10
38.650000
 20
267.850000
 10
38.625000
 20
267.850000
 10
38.575000
 20
267.850000
 10
38.550000
 20
267.825000
 10
38.500000
 20
267.850000
 10
38.450000
 20
267.850000
 10
38.425000
 20
267.850000
 10
38.400000
 20
267.900000
 10
38.375000
 20
267.925000
 10
38.350000
 20
267.950000
 10
38.350000
 20
268.100000
 10
38.375000
 20
268.125000
 10
38.400000
 20
268.150000
 10
38.425000
 20
268.200000
 10
38.450000
 20
268.200000
 10
38.625000
 20
268.200000
 10
38.650000
 20
268.200000
 10
38.675000
 20
268.150000
 10
38.700000
 20
268.125000
 10
38.725000
 20
268.100000
 10
38.725000
 20
268.075000
 10
38.725000
 20
268.025000
  0
CIRCLE
  5
72b
100
AcDbEntity
  8
0
370
    20
100
AcDbCircle
 10
38.550000
 20
268.025000
 40
0.200000
  0
HATCH
  5
72e
330
F6
100
AcDbEntity
  8
0
100
AcDbHatch
 10
0.0
 20
0.0
 30
0.0
210
0.0
220
0.0
230
1.0
  2
SOLID
 70
     1
 71
     0
 91
     1
 92
     7
 72
     0
 73
     1
 93
    26
 10
39.300000
 20
268.025000
 10
39.275000
 20
267.975000
 10
39.275000
 20
267.950000
 10
39.275000
 20
267.925000
 10
39.225000
 20
267.900000
 10
39.225000
 20
267.850000
 10
39.175000
 20
267.850000
 10
39.150000
 20
267.850000
 10
39.125000
 20
267.825000
 10
39.050000
 20
267.850000
 10
39.025000
 20
267.850000
 10
39.000000
 20
267.850000
 10
38.975000
 20
267.900000
 10
38.950000
 20
267.925000
 10
38.925000
 20
267.950000
 10
38.925000
 20
268.100000
 10
38.950000
 20
268.125000
 10
38.975000
 20
268.150000
 10
39.000000
 20
268.200000
 10
39.025000
 20
268.200000
 10
39.175000
 20
268.200000
 10
39.225000
 20
268.200000
 10
39.225000
 20
268.150000
 10
39.275000
 20
268.125000
 10
39.275000
 20
268.100000
 10
39.275000
 20
268.075000
 97
     1
330
731
 75
     0
 76
     1
 47
0.651316
 98
     1
 10
0.0
 20
0.0
  0
LWPOLYLINE
  5
731
330
F6
100
AcDbEntity
  8
0
100
AcDbPolyline
 90
    27
 70
     0
 43
0.200000
 10
39.300000
 20
268.025000
 10
39.275000
 20
267.975000
 10
39.275000
 20
267.950000
 10
39.275000
 20
267.925000
 10
39.225000
 20
267.900000
 10
39.225000
 20
267.850000
 10
39.175000
 20
267.850000
 10
39.150000
 20
267.850000
 10
39.125000
 20
267.825000
 10
39.050000
 20
267.850000
 10
39.025000
 20
267.850000
 10
39.000000
 20
267.850000
 10
38.975000
 20
267.900000
 10
38.950000
 20
267.925000
 10
38.925000
 20
267.950000
 10
38.925000
 20
268.100000
 10
38.950000
 20
268.125000
 10
38.975000
 20
268.150000
 10
39.000000
 20
268.200000
 10
39.025000
 20
268.200000
 10
39.175000
 20
268.200000
 10
39.225000
 20
268.200000
 10
39.225000
 20
268.150000
 10
39.275000
 20
268.125000
 10
39.275000
 20
268.100000
 10
39.275000
 20
268.075000
 10
39.300000
 20
268.025000
  0
CIRCLE
  5
76a
100
AcDbEntity
  8
0
370
    20
100
AcDbCircle
 10
39.125000
 20
268.025000
 40
0.200000
  0
HATCH
  5
76d
330
F6
100
AcDbEntity
  8
0
100
AcDbHatch
 10
0.0
 20
0.0
 30
0.0
210
0.0
220
0.0
230
1.0
  2
SOLID
 70
     1
 71
     0
 91
     1
 92
     7
 72
     0
 73
     1
 93
    26
 10
41.750000
 20
266.400000
 10
41.725000
 20
266.375000
 10
41.725000
 20
266.325000
 10
41.700000
 20
266.300000
 10
41.675000
 20
266.275000
 10
41.650000
 20
266.250000
 10
41.625000
 20
266.225000
 10
41.600000
 20
266.225000
 10
41.550000
 20
266.200000
 10
41.500000
 20
266.225000
 10
41.475000
 20
266.225000
 10
41.425000
 20
266.250000
 10
41.425000
 20
266.275000
 10
41.375000
 20
266.300000
 10
41.375000
 20
266.325000
 10
41.375000
 20
266.475000
 10
41.375000
 20
266.525000
 10
41.425000
 20
266.525000
 10
41.425000
 20
266.575000
 10
41.475000
 20
266.575000
 10
41.625000
 20
266.575000
 10
41.650000
 20
266.575000
 10
41.675000
 20
266.525000
 10
41.700000
 20
266.525000
 10
41.725000
 20
266.475000
 10
41.725000
 20
266.450000
 97
     1
330
770
 75
     0
 76
     1
 47
0.651316
 98
     1
 10
0.0
 20
0.0
  0
LWPOLYLINE
  5
770
330
F6
100
AcDbEntity
  8
0
100
AcDbPolyline
 90
    27
 70
     0
 43
0.200000
 10
41.750000
 20
266.400000
 10
41.725000
 20
266.375000
 10
41.725000
 20
266.325000
 10
41.700000
 20
266.300000
 10
41.675000
 20
266.275000
 10
41.650000
 20
266.250000
 10
41.625000
 20
266.225000
 10
41.600000
 20
266.225000
 10
41.550000
 20
266.200000
 10
41.500000
 20
266.225000
 10
41.475000
 20
266.225000
 10
41.425000
 20
266.250000
 10
41.425000
 20
266.275000
 10
41.375000
 20
266.300000
 10
41.375000
 20
266.325000
 10
41.375000
 20
266.475000
 10
41.375000
 20
266.525000
 10
41.425000
 20
266.525000
 10
41.425000
 20
266.575000
 10
41.475000
 20
266.575000
 10
41.625000
 20
266.575000
 10
41.650000
 20
266.575000
 10
41.675000
 20
266.525000
 10
41.700000
 20
266.525000
 10
41.725000
 20
266.475000
 10
41.725000
 20
266.450000
 10
41.750000
 20
266.400000
  0
CIRCLE
  5
7a9
100
AcDbEntity
  8
0
370
    20
100
AcDbCircle
 10
41.550000
 20
266.400000
 40
0.200000
  0
HATCH
  5
7ac
330
F6
100
AcDbEntity
  8
0
100
AcDbHatch
 10
0.0
 20
0.0
 30
0.0
210
0.0
220
0.0
230
1.0
  2
SOLID
 70
     1
 71
     0
 91
     1
 92
     7
 72
     0
 73
     1
 93
    31
 10
35.200000
 20
271.050000
 10
35.200000
 20
271.000000
 10
35.175000
 20
270.975000
 10
35.150000
 20
270.950000
 10
35.100000
 20
270.925000
 10
35.075000
 20
270.900000
 10
35.000000
 20
270.900000
 10
34.825000
 20
270.900000
 10
34.675000
 20
270.950000
 10
34.625000
 20
270.950000
 10
34.600000
 20
271.000000
 10
34.600000
 20
271.050000
 10
34.600000
 20
271.075000
 10
34.650000
 20
271.225000
 10
34.625000
 20
271.175000
 10
34.600000
 20
271.150000
 10
34.600000
 20
271.075000
 10
34.625000
 20
271.000000
 10
34.675000
 20
271.000000
 10
34.725000
 20
270.950000
 10
34.775000
 20
270.950000
 10
35.025000
 20
270.950000
 10
35.125000
 20
270.975000
 10
35.150000
 20
271.000000
 10
35.175000
 20
271.025000
 10
35.175000
 20
271.075000
 10
35.200000
 20
271.075000
 10
35.200000
 20
271.125000
 10
35.175000
 20
271.200000
 10
35.125000
 20
271.225000
 10
35.175000
 20
271.075000
 97
     1
330
7af
 75
     0
 76
     1
 47
0.651316
 98
     1
 10
0.0
 20
0.0
  0
LWPOLYLINE
  5
7af
330
F6
100
AcDbEntity
  8
0
100
AcDbPolyline
 90
    32
 70
     0
 43
0.200000
 10
35.200000
 20
271.050000
 10
35.200000
 20
271.000000
 10
35.175000
 20
270.975000
 10
35.150000
 20
270.950000
 10
35.100000
 20
270.925000
 10
35.075000
 20
270.900000
 10
35.000000
 20
270.900000
 10
34.825000
 20
270.900000
 10
34.675000
 20
270.950000
 10
34.625000
 20
270.950000
 10
34.600000
 20
271.000000
 10
34.600000
 20
271.050000
 10
34.600000
 20
271.075000
 10
34.650000
 20
271.225000
 10
34.625000
 20
271.175000
 10
34.600000
 20
271.150000
 10
34.600000
 20
271.075000
 10
34.625000
 20
271.000000
 10
34.675000
 20
271.000000
 10
34.725000
 20
270.950000
 10
34.775000
 20
270.950000
 10
35.025000
 20
270.950000
 10
35.125000
 20
270.975000
 10
35.150000
 20
271.000000
 10
35.175000
 20
271.025000
 10
35.175000
 20
271.075000
 10
35.200000
 20
271.075000
 10
35.200000
 20
271.125000
 10
35.175000
 20
271.200000
 10
35.125000
 20
271.225000
 10
35.175000
 20
271.075000
 10
35.200000
 20
271.050000
  0
ELLIPSE
  5
7f2
100
AcDbEntity
  8
0
370
    20
100
AcDbEllipse
 10
34.900000
 20
271.050000
 30
0.000000
 11
0.300000
 21
-0.0000000000000000
 31
0.000000
210
0.000000
220
0.000000
230
1.000000
 40
0.583333
 41
3.282719
 42
6.154331
  0
ELLIPSE
  5
7f5
100
AcDbEntity
  8
0
370
    20
100
AcDbEllipse
 10
34.900000
 20
271.100000
 30
0.000000
 11
0.300000
 21
-0.0000000000000000
 31
0.000000
210
0.000000
220
0.000000
230
1.000000
 40
0.583333
 41
2.552544
 42
0.589049
  0
ELLIPSE
  5
7f8
100
AcDbEntity
  8
0
370
    20
100
AcDbEllipse
 10
34.900000
 20
271.225000
 30
0.000000
 11
0.225000
 21
-0.0000000000000000
 31
0.000000
210
0.000000
220
0.000000
230
1.000000
 40
0.777778
 41
0.000000
 42
6.283185
  0
ELLIPSE
  5
7fb
100
AcDbEntity
  8
0
370
    20
100
AcDbEllipse
 10
36.025000
 20
271.075000
 30
0.000000
 11
0.425000
 21
-0.000000000000000
 31
0.000000
210
0.000000
220
0.000000
230
1.000000
 40
0.470588
 41
3.273515
 42
6.160467
  0
ELLIPSE
  5
7fe
100
AcDbEntity
  8
0
370
    20
100
AcDbEllipse
 10
36.025000
 20
271.125000
 30
0.000000
 11
0.425000
 21
-0.000000000000000
 31
0.000000
210
0.000000
220
0.000000
230
1.000000
 40
0.470588
 41
2.417554
 42
0.834486
  0
ELLIPSE
  5
801
100
AcDbEntity
  8
0
370
    20
100
AcDbEllipse
 10
36.025000
 20
271.300000
 30
0.000000
 11
0.300000
 21
-0.0000000000000000
 31
0.000000
210
0.000000
220
0.000000
230
1.000000
 40
0.583333
 41
0.000000
 42
6.283185
  0
ELLIPSE
  5
804
100
AcDbEntity
  8
0
370
    20
100
AcDbEllipse
 10
37.675000
 20
271.075000
 30
0.000000
 11
0.425000
 21
-0.000000000000000
 31
0.000000
210
0.000000
220
0.000000
230
1.000000
 40
0.470588
 41
3.273515
 42
6.160467
  0
ELLIPSE
  5
807
100
AcDbEntity
  8
0
370
    20
100
AcDbEllipse
 10
37.675000
 20
271.125000
 30
0.000000
 11
0.425000
 21
-0.000000000000000
 31
0.000000
210
0.000000
220
0.000000
230
1.000000
 40
0.470588
 41
2.417554
 42
0.834486
  0
ELLIPSE
  5
80a
100
AcDbEntity
  8
0
370
    20
100
AcDbEllipse
 10
37.675000
 20
271.300000
 30
0.000000
 11
0.300000
 21
-0.0000000000000000
 31
0.000000
210
0.000000
220
0.000000
230
1.000000
 40
0.583333
 41
0.000000
 42
6.283185
  0
ELLIPSE
  5
80d
100
AcDbEntity
  8
0
370
    20
100
AcDbEllipse
 10
39.375000
 20
271.075000
 30
0.000000
 11
0.425000
 21
-0.000000000000000
 31
0.000000
210
0.000000
220
0.000000
230
1.000000
 40
0.470588
 41
3.264311
 42
6.151263
  0
ELLIPSE
  5
810
100
AcDbEntity
  8
0
370
    20
100
AcDbEllipse
 10
39.375000
 20
271.125000
 30
0.000000
 11
0.425000
 21
-0.000000000000000
 31
0.000000
210
0.000000
220
0.000000
230
1.000000
 40
0.470588
 41
2.460505
 42
0.834486
  0
ELLIPSE
  5
813
100
AcDbEntity
  8
0
370
    20
100
AcDbEllipse
 10
39.375000
 20
271.300000
 30
0.000000
 11
0.300000
 21
-0.0000000000000000
 31
0.000000
210
0.000000
220
0.000000
230
1.000000
 40
0.583333
 41
0.000000
 42
6.283185
  0
ELLIPSE
  5
816
100
AcDbEntity
  8
0
370
    20
100
AcDbEllipse
 10
41.050000
 20
271.075000
 30
0.000000
 11
0.425000
 21
-0.000000000000000
 31
0.000000
210
0.000000
220
0.000000
230
1.000000
 40
0.470588
 41
3.264311
 42
6.151263
  0
ELLIPSE
  5
819
100
AcDbEntity
  8
0
370
    20
100
AcDbEllipse
 10
41.050000
 20
271.125000
 30
0.000000
 11
0.425000
 21
-0.000000000000000
 31
0.000000
210
0.000000
220
0.000000
230
1.000000
 40
0.470588
 41
2.460505
 42
0.886641
  0
ELLIPSE
  5
81c
100
AcDbEntity
  8
0
370
    20
100
AcDbEllipse
 10
41.050000
 20
271.300000
 30
0.000000
 11
0.300000
 21
-0.0000000000000000
 31
0.000000
210
0.000000
220
0.000000
230
1.000000
 40
0.583333
 41
0.000000
 42
6.283185
  0
ELLIPSE
  5
81f
100
AcDbEntity
  8
0
370
    20
100
AcDbEllipse
 10
49.650000
 20
271.075000
 30
0.000000
 11
1.225000
 21
-0.000000000000000
 31
0.000000
210
0.000000
220
0.000000
230
1.000000
 40
0.142857
 41
3.279651
 42
6.145127
  0
ELLIPSE
  5
822
100
AcDbEntity
  8
0
370
    20
100
AcDbEllipse
 10
49.650000
 20
271.125000
 30
0.000000
 11
1.225000
 21
-0.000000000000000
 31
0.000000
210
0.000000
220
0.000000
230
1.000000
 40
0.142857
 41
2.368466
 42
0.819146
  0
ELLIPSE
  5
825
100
AcDbEntity
  8
0
370
    20
100
AcDbEllipse
 10
49.650000
 20
271.300000
 30
0.000000
 11
1.100000
 21
-0.000000000000000
 31
0.000000
210
0.000000
220
0.000000
230
1.000000
 40
0.159091
 41
0.000000
 42
6.283185
  0
ELLIPSE
  5
828
100
AcDbEntity
  8
0
370
    20
100
AcDbEllipse
 10
46.700000
 20
271.075000
 30
0.000000
 11
0.825000
 21
-0.000000000000000
 31
0.000000
210
0.000000
220
0.000000
230
1.000000
 40
0.242424
 41
3.264311
 42
6.160467
  0
ELLIPSE
  5
82b
100
AcDbEntity
  8
0
370
    20
100
AcDbEllipse
 10
46.700000
 20
271.125000
 30
0.000000
 11
0.825000
 21
-0.000000000000000
 31
0.000000
210
0.000000
220
0.000000
230
1.000000
 40
0.242424
 41
2.442097
 42
0.794602
  0
ELLIPSE
  5
82e
100
AcDbEntity
  8
0
370
    20
100
AcDbEllipse
 10
46.700000
 20
271.300000
 30
0.000000
 11
0.775000
 21
-0.000000000000000
 31
0.000000
210
0.000000
220
0.000000
230
1.000000
 40
0.225806
 41
0.000000
 42
6.283185
  0
ELLIPSE
  5
831
100
AcDbEntity
  8
0
370
    20
100
AcDbEllipse
 10
44.350000
 20
271.075000
 30
0.000000
 11
0.425000
 21
-0.000000000000000
 31
0.000000
210
0.000000
220
0.000000
230
1.000000
 40
0.470588
 41
3.264311
 42
6.151263
  0
ELLIPSE
  5
834
100
AcDbEntity
  8
0
370
    20
100
AcDbEllipse
 10
44.350000
 20
271.125000
 30
0.000000
 11
0.425000
 21
-0.000000000000000
 31
0.000000
210
0.000000
220
0.000000
230
1.000000
 40
0.470588
 41
2.460505
 42
0.834486
  0
ELLIPSE
  5
837
100
AcDbEntity
  8
0
370
    20
100
AcDbEllipse
 10
44.350000
 20
271.300000
 30
0.000000
 11
0.300000
 21
-0.0000000000000000
 31
0.000000
210
0.000000
220
0.000000
230
1.000000
 40
0.583333
 41
0.000000
 42
6.283185
  0
ELLIPSE
  5
83a
100
AcDbEntity
  8
0
370
    20
100
AcDbEllipse
 10
42.700000
 20
271.075000
 30
0.000000
 11
0.425000
 21
-0.000000000000000
 31
0.000000
210
0.000000
220
0.000000
230
1.000000
 40
0.470588
 41
3.273515
 42
6.160467
  0
ELLIPSE
  5
83d
100
AcDbEntity
  8
0
370
    20
100
AcDbEllipse
 10
42.700000
 20
271.125000
 30
0.000000
 11
0.425000
 21
-0.000000000000000
 31
0.000000
210
0.000000
220
0.000000
230
1.000000
 40
0.470588
 41
2.417554
 42
0.834486
  0
ELLIPSE
  5
840
100
AcDbEntity
  8
0
370
    20
100
AcDbEllipse
 10
42.700000
 20
271.300000
 30
0.000000
 11
0.300000
 21
-0.0000000000000000
 31
0.000000
210
0.000000
220
0.000000
230
1.000000
 40
0.583333
 41
0.000000
 42
6.283185
  0
MTEXT
  5
843
100
AcDbEntity
  8
0
100
AcDbMText
 10
35.625000
 20
253.750000
 40
1.800000
 41
12.960000
 71
     1
 72
     5
  1
\fＭＳ ゴシック|b0|i0|c128|p49;\T1.0200;記録器
 44
0.908594
 73
     1
  7
BIGFONT
  0
LWPOLYLINE
  5
846
100
AcDbEntity
  8
0
100
AcDbPolyline
 90
     4
 70
     1
 43
0.200000
 10
56.400000
 20
255.600000
 10
67.825000
 20
255.600000
 10
67.825000
 20
263.525000
 10
56.400000
 20
263.525000
  0
LINE
  5
851
100
AcDbEntity
  8
0
370
    20
100
AcDbLine
 10
56.725000
 20
261.050000
 11
61.900000
 21
261.050000
  0
LINE
  5
854
100
AcDbEntity
  8
0
370
    20
100
AcDbLine
 10
56.400000
 20
256.100000
 11
67.825000
 21
256.100000
  0
LINE
  5
857
100
AcDbEntity
  8
0
370
    20
100
AcDbLine
 10
56.725000
 20
262.900000
 11
67.525000
 21
262.900000
  0
POINT
  5
85a
100
AcDbEntity
  8
0
100
AcDbPoint
 10
57.600000
 20
262.100000
  0
POINT
  5
85d
100
AcDbEntity
  8
0
100
AcDbPoint
 10
59.200000
 20
262.100000
  0
POINT
  5
860
100
AcDbEntity
  8
0
100
AcDbPoint
 10
61.025000
 20
262.100000
  0
LINE
  5
863
100
AcDbEntity
  8
0
370
    20
100
AcDbLine
 10
62.050000
 20
256.350000
 11
62.050000
 21
260.875000
  0
LINE
  5
866
100
AcDbEntity
  8
0
370
    20
100
AcDbLine
 10
57.050000
 20
256.425000
 11
57.050000
 21
260.875000
  0
LINE
  5
869
100
AcDbEntity
  8
0
370
    20
100
AcDbLine
 10
67.200000
 20
256.350000
 11
67.200000
 21
262.300000
  0
LINE
  5
86c
100
AcDbEntity
  8
0
370
    40
100
AcDbLine
 10
61.175000
 20
257.050000
 11
61.175000
 21
258.325000
  0
HATCH
  5
86f
330
F6
100
AcDbEntity
  8
0
100
AcDbHatch
 10
0.0
 20
0.0
 30
0.0
210
0.0
220
0.0
230
1.0
  2
SOLID
 70
     1
 71
     0
 91
     1
 92
     5
 93
     1
 72
     4
 94
     3
 73
     0
 74
     1
 95
    29
 96
    25
 40
0.000000
 40
0.000000
 40
0.000000
 40
0.000000
 40
2.675000
 40
2.675000
 40
2.675000
 40
3.382107
 40
3.382107
 40
3.382107
 40
6.682107
 40
6.682107
 40
6.682107
 40
7.389214
 40
7.389214
 40
7.389214
 40
10.064214
 40
10.064214
 40
10.064214
 40
10.771320
 40
10.771320
 40
10.771320
 40
14.071320
 40
14.071320
 40
14.071320
 40
14.778427
 40
14.778427
 40
14.778427
 40
14.778427
 10
63.250000
 20
261.675000
 10
63.250000
 20
261.675000
 10
65.925000
 20
261.675000
 10
65.925000
 20
261.675000
 10
66.200000
 20
261.675000
 10
66.425000
 20
261.450000
 10
66.425000
 20
261.175000
 10
66.425000
 20
261.175000
 10
66.425000
 20
257.875000
 10
66.425000
 20
257.875000
 10
66.425000
 20
257.600000
 10
66.200000
 20
257.375000
 10
65.925000
 20
257.375000
 10
65.925000
 20
257.375000
 10
63.250000
 20
257.375000
 10
63.250000
 20
257.375000
 10
62.975000
 20
257.375000
 10
62.750000
 20
257.600000
 10
62.750000
 20
257.875000
 10
62.750000
 20
257.875000
 10
62.750000
 20
261.175000
 10
62.750000
 20
261.175000
 10
62.750000
 20
261.450000
 10
62.975000
 20
261.675000
 10
63.250000
 20
261.675000
 97
     1
330
872
 75
     0
 76
     1
 47
0.651316
 98
     1
 10
0.0
 20
0.0
  0
SPLINE
  5
872
100
AcDbEntity
  8
0
370
    20
100
AcDbSpline
210
0.000000
220
0.000000
230
1.000000
 70
     9
 71
     3
 72
    29
 73
    25
 74
     0
 42
0.0000001
 43
0.0000001
 44
0.0000000001
 40
0.000000
 40
0.000000
 40
0.000000
 40
0.000000
 40
2.675000
 40
2.675000
 40
2.675000
 40
3.382107
 40
3.382107
 40
3.382107
 40
6.682107
 40
6.682107
 40
6.682107
 40
7.389214
 40
7.389214
 40
7.389214
 40
10.064214
 40
10.064214
 40
10.064214
 40
10.771320
 40
10.771320
 40
10.771320
 40
14.071320
 40
14.071320
 40
14.071320
 40
14.778427
 40
14.778427
 40
14.778427
 40
14.778427
 10
63.250000
 20
261.675000
 30
0.000000
 10
63.250000
 20
261.675000
 30
0.000000
 10
65.925000
 20
261.675000
 30
0.000000
 10
65.925000
 20
261.675000
 30
0.000000
 10
66.200000
 20
261.675000
 30
0.000000
 10
66.425000
 20
261.450000
 30
0.000000
 10
66.425000
 20
261.175000
 30
0.000000
 10
66.425000
 20
261.175000
 30
0.000000
 10
66.425000
 20
257.875000
 30
0.000000
 10
66.425000
 20
257.875000
 30
0.000000
 10
66.425000
 20
257.600000
 30
0.000000
 10
66.200000
 20
257.375000
 30
0.000000
 10
65.925000
 20
257.375000
 30
0.000000
 10
65.925000
 20
257.375000
 30
0.000000
 10
63.250000
 20
257.375000
 30
0.000000
 10
63.250000
 20
257.375000
 30
0.000000
 10
62.975000
 20
257.375000
 30
0.000000
 10
62.750000
 20
257.600000
 30
0.000000
 10
62.750000
 20
257.875000
 30
0.000000
 10
62.750000
 20
257.875000
 30
0.000000
 10
62.750000
 20
261.175000
 30
0.000000
 10
62.750000
 20
261.175000
 30
0.000000
 10
62.750000
 20
261.450000
 30
0.000000
 10
62.975000
 20
261.675000
 30
0.000000
 10
63.250000
 20
261.675000
 30
0.000000
  0
LINE
  5
875
100
AcDbEntity
  8
0
370
    20
100
AcDbLine
 10
108.700000
 20
245.725000
 11
55.025000
 21
245.725000
  0
LINE
  5
878
100
AcDbEntity
  8
0
370
    20
100
AcDbLine
 10
53.525000
 20
247.225000
 11
53.525000
 21
249.225000
  0
LINE
  5
87b
100
AcDbEntity
  8
0
370
    20
100
AcDbLine
 10
55.025000
 20
250.725000
 11
70.625000
 21
250.725000
  0
LINE
  5
87e
100
AcDbEntity
  8
0
370
    20
100
AcDbLine
 10
73.125000
 20
253.225000
 11
73.125000
 21
263.050000
  0
LINE
  5
881
100
AcDbEntity
  8
0
370
    20
100
AcDbLine
 10
70.625000
 20
265.550000
 11
66.825000
 21
265.550000
  0
LINE
  5
884
100
AcDbEntity
  8
0
370
    20
100
AcDbLine
 10
65.325000
 20
264.050000
 11
65.325000
 21
263.525000
  0
ARC
  5
887
100
AcDbEntity
  8
0
370
    20
100
AcDbCircle
 10
70.650000
 20
263.050000
 40
2.500000
100
AcDbArc
 50
360.000000
 51
90.000000
  0
ARC
  5
88a
100
AcDbEntity
  8
0
370
    20
100
AcDbCircle
 10
66.825000
 20
264.050000
 40
1.500000
100
AcDbArc
 50
90.000000
 51
180.000000
  0
ARC
  5
88d
100
AcDbEntity
  8
0
370
    20
100
AcDbCircle
 10
55.025000
 20
249.225000
 40
1.500000
100
AcDbArc
 50
90.000000
 51
180.000000
  0
ARC
  5
890
100
AcDbEntity
  8
0
370
    20
100
AcDbCircle
 10
55.025000
 20
247.225000
 40
1.500000
100
AcDbArc
 50
180.000000
 51
270.000000
  0
ARC
  5
893
100
AcDbEntity
  8
0
370
    20
100
AcDbCircle
 10
70.625000
 20
253.200000
 40
2.500000
100
AcDbArc
 50
270.000000
 51
360.000000
  0
LINE
  5
896
100
AcDbEntity
  8
0
370
    20
100
AcDbLine
 10
60.800000
 20
263.525000
 11
60.800000
 21
271.800000
  0
LINE
  5
899
100
AcDbEntity
  8
0
370
    20
100
AcDbLine
 10
58.300000
 20
274.300000
 11
48.150000
 21
274.300000
  0
LINE
  5
89c
100
AcDbEntity
  8
0
370
    20
100
AcDbLine
 10
46.650000
 20
272.800000
 11
46.650000
 21
271.275000
  0
ARC
  5
89f
100
AcDbEntity
  8
0
370
    20
100
AcDbCircle
 10
58.325000
 20
271.800000
 40
2.500000
100
AcDbArc
 50
360.000000
 51
90.000000
  0
ARC
  5
8a2
100
AcDbEntity
  8
0
370
    20
100
AcDbCircle
 10
48.150000
 20
272.800000
 40
1.500000
100
AcDbArc
 50
90.000000
 51
180.000000
  0
LINE
  5
8a5
100
AcDbEntity
  8
0
370
    20
100
AcDbLine
 10
35.925000
 20
245.725000
 11
35.925000
 21
241.975000
  0
LINE
  5
8a8
100
AcDbEntity
  8
0
370
    80
100
AcDbLine
 10
35.925000
 20
241.975000
 11
35.925000
 21
238.850000
  0
LINE
  5
8ab
100
AcDbEntity
  8
0
370
    20
100
AcDbLine
 10
43.225000
 20
245.725000
 11
43.225000
 21
241.975000
  0
LINE
  5
8ae
100
AcDbEntity
  8
0
370
    80
100
AcDbLine
 10
43.225000
 20
241.975000
 11
43.225000
 21
238.850000
  0
LINE
  5
8b1
100
AcDbEntity
  8
0
370
    20
100
AcDbLine
 10
41.025000
 20
271.275000
 11
41.025000
 21
276.425000
  0
LINE
  5
8b4
100
AcDbEntity
  8
0
370
    20
100
AcDbLine
 10
38.525000
 20
278.925000
 11
8.000000
 21
278.925000
  0
LINE
  5
8b7
100
AcDbEntity
  8
0
370
    20
100
AcDbLine
 10
5.500000
 20
276.425000
 11
5.500000
 21
241.975000
  0
ARC
  5
8ba
100
AcDbEntity
  8
0
370
    20
100
AcDbCircle
 10
38.550000
 20
276.425000
 40
2.500000
100
AcDbArc
 50
360.000000
 51
90.000000
  0
ARC
  5
8bd
100
AcDbEntity
  8
0
370
    20
100
AcDbCircle
 10
8.000000
 20
276.425000
 40
2.500000
100
AcDbArc
 50
90.000000
 51
180.000000
  0
LINE
  5
8c0
100
AcDbEntity
  8
0
370
    80
100
AcDbLine
 10
5.500000
 20
241.975000
 11
5.500000
 21
238.850000
  0
LWPOLYLINE
  5
8c3
100
AcDbEntity
  8
0
100
AcDbPolyline
 90
     3
 70
     0
 10
8.900000
 20
246.000000
 10
9.900000
 20
244.000000
 10
8.900000
 20
242.000000
  0
LWPOLYLINE
  5
8cc
100
AcDbEntity
  8
0
100
AcDbPolyline
 90
     3
 70
     0
 10
10.900000
 20
246.000000
 10
11.900000
 20
244.000000
 10
10.900000
 20
242.000000
  0
LWPOLYLINE
  5
8d5
100
AcDbEntity
  8
0
100
AcDbPolyline
 90
     3
 70
     0
 10
8.900000
 20
242.000000
 10
7.900000
 20
240.000000
 10
8.900000
 20
238.000000
  0
LWPOLYLINE
  5
8de
100
AcDbEntity
  8
0
100
AcDbPolyline
 90
     3
 70
     0
 10
8.900000
 20
238.000000
 10
9.900000
 20
236.000000
 10
8.900000
 20
234.000000
  0
LWPOLYLINE
  5
8e7
100
AcDbEntity
  8
0
100
AcDbPolyline
 90
     3
 70
     0
 10
10.900000
 20
242.000000
 10
9.900000
 20
240.000000
 10
10.900000
 20
238.000000
  0
LWPOLYLINE
  5
8f0
100
AcDbEntity
  8
0
100
AcDbPolyline
 90
     3
 70
     0
 10
10.900000
 20
238.000000
 10
11.900000
 20
236.000000
 10
10.900000
 20
234.000000
  0
MTEXT
  5
8f9
100
AcDbEntity
  8
0
100
AcDbMText
 10
142.825000
 20
243.050000
 40
2.475000
 41
6.682500
 71
     1
 72
     5
  1
\fＭＳ ゴシック|b0|i0|c128|p49;\T1.0200;Ｐ2
 44
1.284848
 73
     1
  7
BIGFONT
  0
MTEXT
  5
8fc
100
AcDbEntity
  8
0
100
AcDbMText
 10
145.700000
 20
256.825000
 40
1.856250
 41
17.820000
 71
     1
 72
     5
  1
\f@ＭＳ ゴシック|b0|i0|c128|p49;\T1.4384;電位電極
 44
1.597188
 73
     1
 11
-0.000000000000000
 21
-1.000000
 31
0.000000
  7
BIGFONT
  0
MTEXT
  5
8ff
100
AcDbEntity
  8
0
100
AcDbMText
 10
140.600000
 20
257.850000
 40
1.856250
 41
22.275000
 71
     1
 72
     5
  1
\f@ＭＳ ゴシック|b0|i0|c128|p49;\T1.4384;（遠電極）
 44
1.597188
 73
     1
 11
-0.000000000000000
 21
-1.000000
 31
0.000000
  7
BIGFONT
  0
MTEXT
  5
902
100
AcDbEntity
  8
0
100
AcDbMText
 10
4.575000
 20
256.825000
 40
1.856250
 41
17.820000
 71
     1
 72
     5
  1
\f@ＭＳ ゴシック|b0|i0|c128|p49;\T1.4384;電流電極
 44
1.597188
 73
     1
 11
-0.000000000000000
 21
-1.000000
 31
0.000000
  7
BIGFONT
  0
MTEXT
  5
905
100
AcDbEntity
  8
0
100
AcDbMText
 10
0.625000
 20
243.050000
 40
2.475000
 41
6.682500
 71
     1
 72
     5
  1
\fＭＳ ゴシック|b0|i0|c128|p49;\T1.0200;Ｃ2
 44
1.284848
 73
     1
  7
BIGFONT
  0
MTEXT
  5
908
100
AcDbEntity
  8
0
100
AcDbMText
 10
8.725000
 20
259.100000
 40
1.856250
 41
22.275000
 71
     1
 72
     5
  1
\f@ＭＳ ゴシック|b0|i0|c128|p49;\T1.4384;（遠電極）
 44
1.597188
 73
     1
 11
-0.000000000000000
 21
-1.000000
 31
0.000000
  7
BIGFONT
  0
MTEXT
  5
90b
100
AcDbEntity
  8
0
100
AcDbMText
 10
54.300000
 20
254.825000
 40
1.800000
 41
30.240000
 71
     1
 72
     5
  1
\fＭＳ ゴシック|b0|i0|c128|p49;\T1.0200;コネクター切換ホ　ックス
 44
0.908594
 73
     1
  7
BIGFONT
  0
POINT
  5
90e
100
AcDbEntity
  8
0
100
AcDbPoint
 10
32.500000
 20
236.350000
  0
POINT
  5
911
100
AcDbEntity
  8
0
100
AcDbPoint
 10
35.775000
 20
232.900000
  0
POINT
  5
914
100
AcDbEntity
  8
0
100
AcDbPoint
 10
42.975000
 20
225.725000
  0
POINT
  5
917
100
AcDbEntity
  8
0
100
AcDbPoint
 10
50.150000
 20
218.525000
  0
POINT
  5
91a
100
AcDbEntity
  8
0
100
AcDbPoint
 10
57.500000
 20
211.025000
  0
POINT
  5
91d
100
AcDbEntity
  8
0
100
AcDbPoint
 10
39.775000
 20
236.350000
  0
POINT
  5
920
100
AcDbEntity
  8
0
100
AcDbPoint
 10
47.050000
 20
236.350000
  0
POINT
  5
923
100
AcDbEntity
  8
0
100
AcDbPoint
 10
54.325000
 20
236.350000
  0
POINT
  5
926
100
AcDbEntity
  8
0
100
AcDbPoint
 10
61.600000
 20
236.350000
  0
POINT
  5
929
100
AcDbEntity
  8
0
100
AcDbPoint
 10
68.875000
 20
236.350000
  0
POINT
  5
92c
100
AcDbEntity
  8
0
100
AcDbPoint
 10
76.175000
 20
236.350000
  0
POINT
  5
92f
100
AcDbEntity
  8
0
100
AcDbPoint
 10
83.450000
 20
236.350000
  0
POINT
  5
932
100
AcDbEntity
  8
0
100
AcDbPoint
 10
90.725000
 20
236.350000
  0
POINT
  5
935
100
AcDbEntity
  8
0
100
AcDbPoint
 10
98.000000
 20
236.350000
  0
POINT
  5
938
100
AcDbEntity
  8
0
100
AcDbPoint
 10
105.275000
 20
236.350000
  0
POINT
  5
93b
100
AcDbEntity
  8
0
100
AcDbPoint
 10
112.550000
 20
236.350000
  0
POINT
  5
93e
100
AcDbEntity
  8
0
100
AcDbPoint
 10
119.850000
 20
236.350000
  0
POINT
  5
941
100
AcDbEntity
  8
0
100
AcDbPoint
 10
43.050000
 20
232.900000
  0
POINT
  5
944
100
AcDbEntity
  8
0
100
AcDbPoint
 10
50.350000
 20
232.900000
  0
POINT
  5
947
100
AcDbEntity
  8
0
100
AcDbPoint
 10
57.625000
 20
232.900000
  0
POINT
  5
94a
100
AcDbEntity
  8
0
100
AcDbPoint
 10
64.925000
 20
232.900000
  0
POINT
  5
94d
100
AcDbEntity
  8
0
100
AcDbPoint
 10
72.200000
 20
232.900000
  0
POINT
  5
950
100
AcDbEntity
  8
0
100
AcDbPoint
 10
79.500000
 20
232.900000
  0
POINT
  5
953
100
AcDbEntity
  8
0
100
AcDbPoint
 10
86.775000
 20
232.900000
  0
POINT
  5
956
100
AcDbEntity
  8
0
100
AcDbPoint
 10
94.075000
 20
232.900000
  0
POINT
  5
959
100
AcDbEntity
  8
0
100
AcDbPoint
 10
101.350000
 20
232.900000
  0
POINT
  5
95c
100
AcDbEntity
  8
0
100
AcDbPoint
 10
108.650000
 20
232.900000
  0
POINT
  5
95f
100
AcDbEntity
  8
0
100
AcDbPoint
 10
115.950000
 20
232.900000
  0
POINT
  5
962
100
AcDbEntity
  8
0
100
AcDbPoint
 10
50.250000
 20
225.725000
  0
POINT
  5
965
100
AcDbEntity
  8
0
100
AcDbPoint
 10
57.550000
 20
225.725000
  0
POINT
  5
968
100
AcDbEntity
  8
0
100
AcDbPoint
 10
64.850000
 20
225.725000
  0
POINT
  5
96b
100
AcDbEntity
  8
0
100
AcDbPoint
 10
72.125000
 20
225.725000
  0
POINT
  5
96e
100
AcDbEntity
  8
0
100
AcDbPoint
 10
79.425000
 20
225.725000
  0
POINT
  5
971
100
AcDbEntity
  8
0
100
AcDbPoint
 10
86.725000
 20
225.725000
  0
POINT
  5
974
100
AcDbEntity
  8
0
100
AcDbPoint
 10
94.000000
 20
225.725000
  0
POINT
  5
977
100
AcDbEntity
  8
0
100
AcDbPoint
 10
101.300000
 20
225.725000
  0
POINT
  5
97a
100
AcDbEntity
  8
0
100
AcDbPoint
 10
108.600000
 20
225.725000
  0
POINT
  5
97d
100
AcDbEntity
  8
0
100
AcDbPoint
 10
57.450000
 20
218.525000
  0
POINT
  5
980
100
AcDbEntity
  8
0
100
AcDbPoint
 10
64.775000
 20
218.525000
  0
POINT
  5
983
100
AcDbEntity
  8
0
100
AcDbPoint
 10
72.100000
 20
218.525000
  0
POINT
  5
986
100
AcDbEntity
  8
0
100
AcDbPoint
 10
79.425000
 20
218.525000
  0
POINT
  5
989
100
AcDbEntity
  8
0
100
AcDbPoint
 10
86.750000
 20
218.525000
  0
POINT
  5
98c
100
AcDbEntity
  8
0
100
AcDbPoint
 10
94.075000
 20
218.525000
  0
POINT
  5
98f
100
AcDbEntity
  8
0
100
AcDbPoint
 10
101.400000
 20
218.525000
  0
POINT
  5
992
100
AcDbEntity
  8
0
100
AcDbPoint
 10
64.800000
 20
211.025000
  0
POINT
  5
995
100
AcDbEntity
  8
0
100
AcDbPoint
 10
72.125000
 20
211.025000
  0
POINT
  5
998
100
AcDbEntity
  8
0
100
AcDbPoint
 10
79.425000
 20
211.025000
  0
POINT
  5
99b
100
AcDbEntity
  8
0
100
AcDbPoint
 10
86.750000
 20
211.025000
  0
POINT
  5
99e
100
AcDbEntity
  8
0
100
AcDbPoint
 10
94.075000
 20
211.025000
  0
POINT
  5
9a1
100
AcDbEntity
  8
0
100
AcDbPoint
 10
39.450000
 20
229.475000
  0
POINT
  5
9a4
100
AcDbEntity
  8
0
100
AcDbPoint
 10
46.750000
 20
229.475000
  0
POINT
  5
9a7
100
AcDbEntity
  8
0
100
AcDbPoint
 10
54.025000
 20
229.475000
  0
POINT
  5
9aa
100
AcDbEntity
  8
0
100
AcDbPoint
 10
61.325000
 20
229.475000
  0
POINT
  5
9ad
100
AcDbEntity
  8
0
100
AcDbPoint
 10
68.600000
 20
229.475000
  0
POINT
  5
9b0
100
AcDbEntity
  8
0
100
AcDbPoint
 10
75.900000
 20
229.475000
  0
POINT
  5
9b3
100
AcDbEntity
  8
0
100
AcDbPoint
 10
83.175000
 20
229.475000
  0
POINT
  5
9b6
100
AcDbEntity
  8
0
100
AcDbPoint
 10
90.475000
 20
229.475000
  0
POINT
  5
9b9
100
AcDbEntity
  8
0
100
AcDbPoint
 10
97.750000
 20
229.475000
  0
POINT
  5
9bc
100
AcDbEntity
  8
0
100
AcDbPoint
 10
105.050000
 20
229.475000
  0
POINT
  5
9bf
100
AcDbEntity
  8
0
100
AcDbPoint
 10
112.350000
 20
229.475000
  0
POINT
  5
9c2
100
AcDbEntity
  8
0
100
AcDbPoint
 10
46.800000
 20
222.125000
  0
POINT
  5
9c5
100
AcDbEntity
  8
0
100
AcDbPoint
 10
54.100000
 20
222.125000
  0
POINT
  5
9c8
100
AcDbEntity
  8
0
100
AcDbPoint
 10
61.400000
 20
222.125000
  0
POINT
  5
9cb
100
AcDbEntity
  8
0
100
AcDbPoint
 10
68.675000
 20
222.125000
  0
POINT
  5
9ce
100
AcDbEntity
  8
0
100
AcDbPoint
 10
75.975000
 20
222.125000
  0
POINT
  5
9d1
100
AcDbEntity
  8
0
100
AcDbPoint
 10
83.275000
 20
222.125000
  0
POINT
  5
9d4
100
AcDbEntity
  8
0
100
AcDbPoint
 10
90.550000
 20
222.125000
  0
POINT
  5
9d7
100
AcDbEntity
  8
0
100
AcDbPoint
 10
97.850000
 20
222.125000
  0
POINT
  5
9da
100
AcDbEntity
  8
0
100
AcDbPoint
 10
105.150000
 20
222.125000
  0
POINT
  5
9dd
100
AcDbEntity
  8
0
100
AcDbPoint
 10
53.875000
 20
215.100000
  0
POINT
  5
9e0
100
AcDbEntity
  8
0
100
AcDbPoint
 10
61.200000
 20
215.100000
  0
POINT
  5
9e3
100
AcDbEntity
  8
0
100
AcDbPoint
 10
68.525000
 20
215.100000
  0
POINT
  5
9e6
100
AcDbEntity
  8
0
100
AcDbPoint
 10
75.850000
 20
215.100000
  0
POINT
  5
9e9
100
AcDbEntity
  8
0
100
AcDbPoint
 10
83.175000
 20
215.100000
  0
POINT
  5
9ec
100
AcDbEntity
  8
0
100
AcDbPoint
 10
90.500000
 20
215.100000
  0
POINT
  5
9ef
100
AcDbEntity
  8
0
100
AcDbPoint
 10
97.825000
 20
215.100000
  0
MTEXT
  5
9f2
100
AcDbEntity
  8
0
100
AcDbMText
 10
27.075000
 20
252.275000
 40
1.856250
 41
17.820000
 71
     1
 72
     5
  1
\f@ＭＳ ゴシック|b0|i0|c128|p49;\T1.4384;電流電極
 44
1.597188
 73
     1
 11
-0.000000000000000
 21
-1.000000
 31
0.000000
  7
BIGFONT
  0
MTEXT
  5
9f5
100
AcDbEntity
  8
0
100
AcDbMText
 10
29.375000
 20
243.650000
 40
2.475000
 41
6.682500
 71
     1
 72
     5
  1
\fＭＳ ゴシック|b0|i0|c128|p49;\T1.0200;Ｃ1
 44
1.284848
 73
     1
  7
BIGFONT
  0
MTEXT
  5
9f8
100
AcDbEntity
  8
0
100
AcDbMText
 10
65.775000
 20
243.050000
 40
2.475000
 41
6.682500
 71
     1
 72
     5
  1
\fＭＳ ゴシック|b0|i0|c128|p49;\T1.0200;Ｐ1
 44
1.284848
 73
     1
  7
BIGFONT
  0
MTEXT
  5
9fb
100
AcDbEntity
  8
0
100
AcDbMText
 10
62.650000
 20
210.650000
 40
2.475000
 41
8.910000
 71
     1
 72
     5
  1
\fＭＳ ゴシック|b0|i0|c128|p49;\T1.0200;Ｐ\T0.9067;1\T0.9067;n
 44
1.149321
 73
     1
  7
BIGFONT
  0
MTEXT
  5
9fe
100
AcDbEntity
  8
0
100
AcDbMText
 10
65.800000
 20
248.600000
 40
1.856250
 41
17.820000
 71
     1
 72
     5
  1
\fＭＳ ゴシック|b0|i0|c128|p49;\T1.4384;電位電極
 44
1.597188
 73
     1
  7
BIGFONT
  0
POINT
  5
a01
100
AcDbEntity
  8
0
100
AcDbPoint
 10
114.175000
 20
217.400000
  0
MTEXT
  5
a04
100
AcDbEntity
  8
0
100
AcDbMText
 10
116.150000
 20
218.500000
 40
1.856250
 41
44.550000
 71
     1
 72
     5
  1
\fＭＳ ゴシック|b0|i0|c128|p49;\T1.4384;点における比抵抗値を
 44
1.597188
 73
     1
  7
BIGFONT
  0
MTEXT
  5
a07
100
AcDbEntity
  8
0
100
AcDbMText
 10
113.500000
 20
215.075000
 40
1.856250
 41
49.005000
 71
     1
 72
     5
  1
\fＭＳ ゴシック|b0|i0|c128|p49;\T1.4384;各電極・各展開で求める
 44
1.597188
 73
     1
  7
BIGFONT
  0
MTEXT
  5
a0a
100
AcDbEntity
  8
0
100
AcDbMText
 10
22.025000
 20
263.200000
 40
1.800000
 41
12.960000
 71
     1
 72
     5
  1
\fＭＳ ゴシック|b0|i0|c128|p49;\T1.0200;発電機
 44
0.908594
 73
     1
  7
BIGFONT
  0
LINE
  5
a0d
100
AcDbEntity
  8
0
370
    20
100
AcDbLine
 10
29.625000
 20
271.225000
 11
22.525000
 21
271.225000
  0
LINE
  5
a10
100
AcDbEntity
  8
0
370
    20
100
AcDbLine
 10
22.500000
 20
271.175000
 11
22.500000
 21
264.600000
  0
LINE
  5
a13
100
AcDbEntity
  8
0
370
    20
100
AcDbLine
 10
22.525000
 20
264.575000
 11
29.550000
 21
264.575000
  0
LINE
  5
a16
100
AcDbEntity
  8
0
370
    20
100
AcDbLine
 10
29.600000
 20
264.525000
 11
29.600000
 21
271.250000
  0
LINE
  5
a19
100
AcDbEntity
  8
0
370
    40
100
AcDbLine
 10
29.625000
 20
269.300000
 11
30.025000
 21
269.300000
  0
LWPOLYLINE
  5
a1c
100
AcDbEntity
  8
0
100
AcDbPolyline
 90
     3
 70
     1
 43
0.400000
 10
31.025000
 20
270.300000
 10
31.025000
 20
272.900000
 10
31.025000
 20
273.925000
  0
LWPOLYLINE
  5
a25
100
AcDbEntity
  8
0
100
AcDbPolyline
 90
     4
 70
     1
 43
0.400000
 10
32.025000
 20
274.925000
 10
33.450000
 20
274.925000
 10
34.075000
 20
274.925000
 10
34.950000
 20
274.925000
  0
LINE
  5
a30
100
AcDbEntity
  8
0
370
    40
100
AcDbLine
 10
35.950000
 20
273.925000
 11
35.975000
 21
271.125000
  0
ARC
  5
a33
100
AcDbEntity
  8
0
370
    40
100
AcDbCircle
 10
30.025000
 20
270.275000
 40
1.000000
100
AcDbArc
 50
270.000000
 51
360.000000
  0
ARC
  5
a36
100
AcDbEntity
  8
0
370
    40
100
AcDbCircle
 10
32.025000
 20
273.925000
 40
1.000000
100
AcDbArc
 50
90.000000
 51
180.000000
  0
ARC
  5
a39
100
AcDbEntity
  8
0
370
    40
100
AcDbCircle
 10
34.975000
 20
273.925000
 40
1.000000
100
AcDbArc
 50
0.359375
 51
90.000000
  0
LINE
  5
a3c
100
AcDbEntity
  8
0
370
    20
100
AcDbLine
 10
24.400000
 20
269.525000
 11
28.775000
 21
269.525000
  0
LINE
  5
a3f
100
AcDbEntity
  8
0
370
    20
100
AcDbLine
 10
24.475000
 20
267.650000
 11
28.700000
 21
267.650000
  0
ENDSEC
  0
SECTION
  2
OBJECTS
  0
DICTIONARY
  5
a4a
100
AcDbDictionary
281
     1
  3
ACAD_COLOR
350
a4b
  3
ACAD_GROUP
350
a4c
  3
ACAD_LAYOUT
350
a4d
  3
ACAD_MATERIAL
350
a4e
  3
ACAD_MLINESTYLE
350
a4f
  3
CONTENTDICTIONARY
350
a55
  0
DICTIONARY
  5
a4b
102
{ACAD_REACTORS
330
a4a
102
}
330
a4a
100
AcDbDictionary
281
     1
  0
DICTIONARY
  5
a4c
102
{ACAD_REACTORS
330
a4a
102
}
330
a4a
100
AcDbDictionary
281
     1
  3
Layout1
350
a56
  3
Layout2
350
a57
  3
Model
350
a9a
  0
DICTIONARY
  5
a4d
102
{ACAD_REACTORS
330
a4a
102
}
330
a4a
100
AcDbDictionary
281
     1
  0
DICTIONARY
  5
a4e
102
{ACAD_REACTORS
330
a4a
102
}
330
a4a
100
AcDbDictionary
281
     1
  0
DICTIONARY
  5
a4f
102
{ACAD_REACTORS
330
a4a
102
}
330
a4a
100
AcDbDictionary
281
     1
  3
Standard
350
a58
  0
DICTIONARY
  5
a50
102
{ACAD_REACTORS
330
a4a
102
}
330
a4a
100
AcDbDictionary
281
     1
  0
ACDBDICTIONARYWDFLT
  5
a51
102
{ACAD_REACTORS
330
a4a
102
}
330
a4a
100
AcDbDictionary
281
     1
  3
Normal
350
a9b
100
AcDbDictionaryWithDefault
340
a9b
  0
DICTIONARY
  5
a52
102
{ACAD_REACTORS
330
a4a
102
}
330
a4a
100
AcDbDictionary
281
     1
  3
Standard
350
a9c
  0
DICTIONARY
  5
a53
102
{ACAD_REACTORS
330
a4a
102
}
330
a4a
100
AcDbDictionary
281
     1
  3
CEPSNTYPE
350
a5a
  3
FINGERPRINTGUID
350
a5b
  3
HYPERLINKBASE
350
a5c
  3
INSUNITS
350
a5d
  3
LAYOUTDICT
350
a5e
  3
LWETCUNION
350
a5f
  3
PLOTSETDICT
350
a60
  3
PLOTSTYLNAMDICT
350
a61
  3
PSVPSCALE
350
a62
  3
PUCSBASE
350
a63
  3
PUCSORGBACK
350
a64
  3
PUCSORGBOTTOM
350
a65
  3
PUCSORGFRONT
350
a66
  3
PUCSORGLEFT
350
a67
  3
PUCSORGRIGHT
350
a68
  3
PUCSORGTOP
350
a69
  3
PUCSORTHOREF
350
a6a
  3
PUCSORTHOVIEW
350
a6b
  3
STYLESHEET
350
a6c
  3
TSTACKALIGN
350
a6d
  3
TSTACKSIZE
350
a6e
  3
UCSBASE
350
a6f
  3
UCSORGBACK
350
a70
  3
UCSORGBOTTOM
350
a71
  3
UCSORGFRONT
350
a72
  3
UCSORGLEFT
350
a73
  3
UCSORGRIGHT
350
a74
  3
UCSORGTOP
350
a75
  3
UCSORTHOREF
350
a76
  3
UCSORTHOVIEW
350
a77
  3
VERSIONGUID
350
a78
  0
DICTIONARY
  5
a54
102
{ACAD_REACTORS
330
a4a
102
}
330
a4a
100
AcDbDictionary
281
     1
  3
CTABLESTYLE
350
a79
  3
DIMASSOC
350
a7a
  3
HIDETEXT
350
a7b
  3
PROJECTNAME
350
a7c
  0
LAYOUT
  5
a55
102
{ACAD_XDICTIONARY
360
d60
102
}
102
{ACAD_REACTORS
330
a4b
102
}
330
a4b
100
AcDbPlotSettings
  1

  2

  4

  6

 40
0.000000
 41
0.000000
 42
0.000000
 43
0.000000
 44
0.000000
 45
0.000000
 46
0.000000
 47
0.000000
 48
0.000000
 49
0.000000
140
0.000000
141
0.000000
142
1.000000
143
1.000000
 70
   688
 72
     0
 73
     0
 74
     5
  7

 75
    16
147
1.000000
148
0.000000
149
0.000000
100
AcDbLayout
  1
Layout1
 70
     1
 71
     1
 10
0.000000
 20
0.000000
 11
199.000000
 21
284.000000
 12
0.000000
 22
0.000000
 32
0.000000
 14
100000000000000000000.000000
 24
100000000000000000000.000000
 34
100000000000000000000.000000
 15
-100000000000000000000.000000
 25
-100000000000000000000.000000
 35
-100000000000000000000.000000
146
0.000000
 13
0.000000
 23
0.000000
 33
0.000000
 16
1.000000
 26
0.000000
 36
0.000000
 17
0.000000
 27
1.000000
 37
0.000000
 76
     0
330
a4f
  0
LAYOUT
  5
a56
102
{ACAD_XDICTIONARY
360
d62
102
}
102
{ACAD_REACTORS
330
a4b
102
}
330
a4b
100
AcDbPlotSettings
  1

  2

  4

  6

 40
0.000000
 41
0.000000
 42
0.000000
 43
0.000000
 44
0.000000
 45
0.000000
 46
0.000000
 47
0.000000
 48
0.000000
 49
0.000000
140
0.000000
141
0.000000
142
1.000000
143
1.000000
 70
   688
 72
     0
 73
     0
 74
     5
  7

 75
    16
147
1.000000
148
0.000000
149
0.000000
100
AcDbLayout
  1
Layout2
 70
     1
 71
     2
 10
0.000000
 20
0.000000
 11
199.000000
 21
284.000000
 12
0.000000
 22
0.000000
 32
0.000000
 14
0.000000
 24
0.000000
 34
0.000000
 15
0.000000
 25
0.000000
 35
0.000000
146
0.000000
 13
0.000000
 23
0.000000
 33
0.000000
 16
1.000000
 26
0.000000
 36
0.000000
 17
0.000000
 27
1.000000
 37
0.000000
 76
     0
330
a56
  0
LAYOUT
  5
a57
102
{ACAD_XDICTIONARY
360
d64
102
}
102
{ACAD_REACTORS
330
a4b
102
}
330
a4b
100
AcDbPlotSettings
  1

  2

  4

  6

 40
0.000000
 41
0.000000
 42
0.000000
 43
0.000000
 44
0.000000
 45
0.000000
 46
0.000000
 47
0.000000
 48
0.000000
 49
0.000000
140
0.000000
141
0.000000
142
1.000000
143
1.000000
 70
  1712
 72
     0
 73
     0
 74
     0
  7

 75
    16
147
1.000000
148
0.000000
149
0.000000
100
AcDbLayout
  1
Model
 70
     1
 71
     0
 10
0.000000
 20
0.000000
 11
199.000000
 21
284.000000
 12
0.000000
 22
0.000000
 32
0.000000
 14
0.000000
 24
0.000000
 34
0.000000
 15
0.000000
 25
0.000000
 35
0.000000
146
0.000000
 13
0.000000
 23
0.000000
 33
0.000000
 16
1.000000
 26
0.000000
 36
0.000000
 17
0.000000
 27
1.000000
 37
0.000000
 76
     0
330
a57
  0
MLINESTYLE
  5
a58
102
{ACAD_REACTORS
330
a57
102
}
330
a57
100
AcDbMlineStyle
  2
STANDARD
 70
     0
  3
 
 62
   256
 51
90.000000
 52
90.000000
 71
     2
 49
0.500000
 62
   256
  6
BYLAYER
 49
-0.500000
 62
   256
  6
BYLAYER
  0
ACDBPLACEHOLDER
  5
a59
102
{ACAD_REACTORS
330
a58
102
}
330
a58
  0
DICTIONARY
  5
d60
100
AcDbDictionary
280
     1
281
     1
  3
ACAD_XREC_ROUNDTRIP
360
d61
  0
DICTIONARY
  5
d62
100
AcDbDictionary
280
     1
281
     1
  3
ACAD_XREC_ROUNDTRIP
360
d63
  0
DICTIONARY
  5
d64
100
AcDbDictionary
280
     1
281
     1
  3
ACAD_XREC_ROUNDTRIP
360
d65
  0
XRECORD
  5
d61
102
{ACAD_REACTORS
330
d60
102
}
330
d60
100
AcDbXrecord
280
     1
102
SHADEPLOT
 70
     0
102
SHADEPLOTRESLEVEL
 70
     2
102
SHADEPLOTCUSTOMDPI
 70
   300
  0
XRECORD
  5
d63
102
{ACAD_REACTORS
330
d62
102
}
330
d62
100
AcDbXrecord
280
     1
102
SHADEPLOT
 70
     0
102
SHADEPLOTRESLEVEL
 70
     2
102
SHADEPLOTCUSTOMDPI
 70
   300
  0
XRECORD
  5
d65
102
{ACAD_REACTORS
330
d64
102
}
330
d64
100
AcDbXrecord
280
     1
102
SHADEPLOT
 70
     0
102
SHADEPLOTRESLEVEL
 70
     2
102
SHADEPLOTCUSTOMDPI
 70
   300
  0
ENDSEC
  0
EOF
