  0
SECTION
  2
HEADER
  9
$ACADVER
  1
AC1018
  9
$ACADMAINTVER
 70
     0
  9
$DWGCODEPAGE
  3
ANSI_932
  9
$INSBASE
 10
0.000000
 20
0.000000
 30
0.000000
  9
$EXTMIN
 10
0.000000
 20
0.000000
 30
0.000000
  9
$EXTMAX
 10
157.000000
 20
246.000000
 30
0.000000
  9
$LIMMIN
 10
0.000000
 20
0.000000
  9
$LIMMAX
 10
157.000000
 20
246.000000
  9
$ORTHOMODE
 70
     0
  9
$REGENMODE
 70
     1
  9
$FILLMODE
 70
     1
  9
$QTEXTMODE
 70
     0
  9
$MIRRTEXT
 70
     1
  9
$LTSCALE
 40
1.000000
  9
$ATTMODE
 70
     1
  9
$TEXTSIZE
 40
2.500000
  9
$TRACEWID
 40
1.000000
  9
$TEXTSTYLE
  7
BIGFONT
  9
$CLAYER
  8
0
  9
$CELTYPE
  6
BYLAYER
  9
$CECOLOR
 62
   256
  9
$CELTSCALE
 40
1.000000
  9
$DISPSILH
 70
     0
  9
$DIMSCALE
 40
1.000000
  9
$DIMASZ
 40
2.500000
  9
$DIMEXO
 40
0.625000
  9
$DIMDLI
 40
3.750000
  9
$DIMRND
 40
0.000000
  9
$DIMDLE
 40
0.000000
  9
$DIMEXE
 40
1.250000
  9
$DIMTP
 40
0.000000
  9
$DIMTM
 40
0.000000
  9
$DIMTXT
 40
2.500000
  9
$DIMCEN
 40
2.500000
  9
$DIMTSZ
 40
0.000000
  9
$DIMTOL
 70
     0
  9
$DIMLIM
 70
     0
  9
$DIMTIH
 70
     0
  9
$DIMTOH
 70
     0
  9
$DIMSE1
 70
     0
  9
$DIMSE2
 70
     0
  9
$DIMTAD
 70
     1
  9
$DIMZIN
 70
     8
  9
$DIMBLK
  1

  9
$DIMASO
 70
     1
  9
$DIMSHO
 70
     1
  9
$DIMPOST
  1

  9
$DIMAPOST
  1

  9
$DIMALT
 70
     0
  9
$DIMALTD
 70
     4
  9
$DIMALTF
 40
0.039400
  9
$DIMLFAC
 40
1.000000
  9
$DIMTOFL
 70
     1
  9
$DIMTVP
 40
0.000000
  9
$DIMTIX
 70
     0
  9
$DIMSOXD
 70
     0
  9
$DIMSAH
 70
     0
  9
$DIMBLK1
  1

  9
$DIMBLK2
  1

  9
$DIMSTYLE
  2
STANDARD
  9
$DIMCLRD
 70
     0
  9
$DIMCLRE
 70
     0
  9
$DIMCLRT
 70
     0
  9
$DIMTFAC
 40
1.000000
  9
$DIMGAP
 40
0.625000
  9
$DIMJUST
 70
     0
  9
$DIMSD1
 70
     0
  9
$DIMSD2
 70
     0
  9
$DIMTOLJ
 70
     1
  9
$DIMTZIN
 70
     0
  9
$DIMALTZ
 70
     0
  9
$DIMALTTZ
 70
     0
  9
$DIMUPT
 70
     0
  9
$DIMDEC
 70
     4
  9
$DIMTDEC
 70
     4
  9
$DIMALTU
 70
     8
  9
$DIMALTTD
 70
     4
  9
$DIMTXSTY
  7
STANDARD
  9
$DIMAUNIT
 70
     0
  9
$DIMADEC
 70
     0
  9
$DIMALTRND
 40
0.000000
  9
$DIMAZIN
 70
     0
  9
$DIMDSEP
 70
    46
  9
$DIMATFIT
 70
     3
  9
$DIMFRAC
 70
     0
  9
$DIMLDRBLK
  1

  9
$DIMLUNIT
 70
     2
  9
$DIMLWD
 70
-2
  9
$DIMLWE
 70
-2
  9
$DIMTMOVE
 70
     0
  9
$LUNITS
 70
     2
  9
$LUPREC
 70
     4
  9
$AXISMODE
 70
     0
  9
$SKETCHINC
 40
1.000000
  9
$FILLETRAD
 40
10.000000
  9
$AUNITS
 70
     0
  9
$AUPREC
 70
     0
  9
$MENU
  1
acad
  9
$ELEVATION
 40
0.000000
  9
$PELEVATION
 40
0.000000
  9
$THICKNESS
 40
0.000000
  9
$LIMCHECK
 70
     0
  9
$BLIPMODE
 70
     0
  9
$CHAMFERA
 40
10.000000
  9
$CHAMFERB
 40
10.000000
  9
$CHAMFERC
 40
20.000000
  9
$CHAMFERD
 40
0.000000
  9
$SKPOLY
 70
     0
  9
$TDCREATE
 40
2447851.677998
  9
$TDUCREATE
 40
2447851.677998
  9
$TDUPDATE
 40
2447851.677998
  9
$TDUUPDATE
 40
2447851.677998
  9
$TDINDWG
 40
0.000000
  9
$TDUSRTIMER
 40
0.000000
  9
$USRTIMER
 70
     1
  9
$ANGBASE
 50
0.000000
  9
$ANGDIR
 70
     0
  9
$PDMODE
 70
     0
  9
$PDSIZE
 40
0.000000
  9
$PLINEWID
 40
0.000000
  9
$SPLFRAME
 70
     0
  9
$SPLINETYPE
 70
     6
  9
$SPLINESEGS
 70
     8
  9
$HANDSEED
  5
FFFFFFF
  9
$SURFTAB1
 70
     6
  9
$SURFTAB2
 70
     6
  9
$SURFTYPE
 70
     6
  9
$SURFU
 70
     6
  9
$SURFV
 70
     6
  9
$UCSBASE
  2

  9
$UCSNAME
  2

  9
$UCSORG
 10
0.000000
 20
0.000000
 30
0.000000
  9
$UCSXDIR
 10
1.000000
 20
0.000000
 30
0.000000
  9
$UCSYDIR
 10
0.000000
 20
1.000000
 30
0.000000
  9
$UCSORTHOREF
  2

  9
$UCSORTHOVIEW
 70
     0
  9
$UCSORGTOP
 10
0.000000
 20
0.000000
 30
0.000000
  9
$UCSORGBOTTOM
 10
0.000000
 20
0.000000
 30
0.000000
  9
$UCSORGLEFT
 10
0.000000
 20
0.000000
 30
0.000000
  9
$UCSORGRIGHT
 10
0.000000
 20
0.000000
 30
0.000000
  9
$UCSORGFRONT
 10
0.000000
 20
0.000000
 30
0.000000
  9
$UCSORGBACK
 10
0.000000
 20
0.000000
 30
0.000000
  9
$PUCSBASE
  2

  9
$PUCSNAME
  2

  9
$PUCSORG
 10
0.000000
 20
0.000000
 30
0.000000
  9
$PUCSXDIR
 10
1.000000
 20
0.000000
 30
0.000000
  9
$PUCSYDIR
 10
0.000000
 20
1.000000
 30
0.000000
  9
$PUCSORTHOREF
  2

  9
$PUCSORTHOVIEW
 70
     0
  9
$PUCSORGTOP
 10
0.000000
 20
0.000000
 30
0.000000
  9
$PUCSORGBOTTOM
 10
0.000000
 20
0.000000
 30
0.000000
  9
$PUCSORGLEFT
 10
0.000000
 20
0.000000
 30
0.000000
  9
$PUCSORGRIGHT
 10
0.000000
 20
0.000000
 30
0.000000
  9
$PUCSORGFRONT
 10
0.000000
 20
0.000000
 30
0.000000
  9
$PUCSORGBACK
 10
0.000000
 20
0.000000
 30
0.000000
  9
$USERI1
 70
     0
  9
$USERI2
 70
     0
  9
$USERI3
 70
     0
  9
$USERI4
 70
     0
  9
$USERI5
 70
     0
  9
$USERR1
 40
0.000000
  9
$USERR2
 40
0.000000
  9
$USERR3
 40
0.000000
  9
$USERR4
 40
0.000000
  9
$USERR5
 40
0.000000
  9
$WORLDVIEW
 70
     1
  9
$SHADEDGE
 70
     3
  9
$SHADEDIF
 70
    70
  9
$TILEMODE
 70
     1
  9
$MAXACTVP
 70
    48
  9
$PINSBASE
 10
0.000000
 20
0.000000
 30
0.000000
  9
$PLIMCHECK
 70
     0
  9
$PEXTMIN
 10
100000000000000000000.000000
 20
100000000000000000000.000000
 30
100000000000000000000.000000
  9
$PEXTMAX
 10
-100000000000000000000.000000
 20
-100000000000000000000.000000
 30
-100000000000000000000.000000
  9
$PLIMMIN
 10
0.000000
 20
0.000000
  9
$PLIMMAX
 10
157.000000
 20
246.000000
  9
$UNITMODE
 70
     0
  9
$VISRETAIN
 70
     1
  9
$PLINEGEN
 70
     0
  9
$PSLTSCALE
 70
     1
  9
$TREEDEPTH
 70
  3020
  9
$CMLSTYLE
  2
STANDARD
  9
$CMLJUST
 70
     0
  9
$CMLSCALE
 40
20.000000
  9
$PROXYGRAPHICS
 70
     1
  9
$MEASUREMENT
 70
     1
  9
$CELWEIGHT
370
-1
  9
$ENDCAPS
280
     0
  9
$JOINSTYLE
280
     0
  9
$LWDISPLAY
290
     1
  9
$INSUNITS
 70
     0
  9
$HYPERLINKBASE
  1

  9
$STYLESHEET
  1

  9
$XEDIT
290
     1
  9
$CEPSNTYPE
380
     0
  9
$PSTYLEMODE
290
     1
  9
$FINGERPRINTGUID
  2
{01801163-5BC0-459E-B9C7-2188C09ED432}
  9
$VERSIONGUID
  2
{7F326DDD-95DF-42AD-9861-A0CD9F0961F2}
  9
$EXTNAMES
290
     1
  9
$PSVPSCALE
 40
0.0
  9
$OLESTARTUP
290
     0
  9
$SORTENTS
280
   127
  9
$INDEXCTL
280
     0
  9
$HIDETEXT
280
     1
  9
$XCLIPFRAME
290
     0
  9
$HALOGAP
280
     0
  9
$OBSCOLOR
 70
   257
  9
$OBSLTYPE
280
     0
  9
$INTERSECTIONDISPLAY
280
     0
  9
$INTERSECTIONCOLOR
 70
   257
  9
$DIMASSOC
280
     2
  9
$PROJECTNAME
  1

  0
ENDSEC
  0
SECTION
  2
TABLES
  0
TABLE
  2
VPORT
  5
a2
100
AcDbSymbolTable
 70
     2
  0
VPORT
  5
a5
100
AcDbSymbolTableRecord
100
AcDbViewportTableRecord
  2
*ACTIVE
 70
     0
 10
0.000000
 20
0.000000
 11
1.000000
 21
1.000000
 12
300.000000
 22
200.000000
 13
0.000000
 23
0.000000
 14
10.000000
 24
10.000000
 15
10.000000
 25
10.000000
 16
0.000000
 26
0.000000
 36
1.000000
 17
0.000000
 27
0.000000
 37
0.000000
 40
300.000000
 41
1.600432
 42
50.000000
 43
0.000000
 44
0.000000
 50
0.000000
 51
0.000000
 71
     0
 72
   100
 73
     1
 74
     1
 75
     0
 76
     0
 77
     0
 78
     0
  0
ENDTAB
  0
TABLE
  2
LTYPE
  5
a8
100
AcDbSymbolTable
 70
    11
  0
LTYPE
  5
ab
100
AcDbSymbolTableRecord
100
AcDbLinetypeTableRecord
  2
BYBLOCK
 70
    64
  3
BYBLOCK
 72
    65
 73
     0
 40
0.000000
  0
LTYPE
  5
ae
100
AcDbSymbolTableRecord
100
AcDbLinetypeTableRecord
  2
BYLAYER
 70
    64
  3
BYLAYER
 72
    65
 73
     0
 40
0.000000
  0
LTYPE
  5
b1
100
AcDbSymbolTableRecord
100
AcDbLinetypeTableRecord
  2
CONTINUOUS
 70
    64
  3
実線
 72
    65
 73
     0
 40
0.000000
  0
LTYPE
  5
b4
100
AcDbSymbolTableRecord
100
AcDbLinetypeTableRecord
  2
DASHED
 70
    64
  3
__ __ __ __ __ __ __ __ __ __ __ __ __ __ __
 72
    65
 73
     2
 40
0.750000
 49
0.500000
 74
     0
 49
-0.250000
 74
     0
  0
LTYPE
  5
b7
100
AcDbSymbolTableRecord
100
AcDbLinetypeTableRecord
  2
HIDDEN
 70
    64
  3
_ _ _ _ _ _ _ _ _ _ _ _ _ _ _ _ _ _ _ _ _ _ _
 72
    65
 73
     2
 40
0.375000
 49
0.250000
 74
     0
 49
-0.125000
 74
     0
  0
LTYPE
  5
ba
100
AcDbSymbolTableRecord
100
AcDbLinetypeTableRecord
  2
CENTER
 70
    64
  3
____ _ ____ _ ____ _ ____ _ ____ _ ____ _ ____
 72
    65
 73
     4
 40
2.000000
 49
1.250000
 74
     0
 49
-0.250000
 74
     0
 49
0.250000
 74
     0
 49
-0.250000
 74
     0
  0
LTYPE
  5
bd
100
AcDbSymbolTableRecord
100
AcDbLinetypeTableRecord
  2
PHANTOM
 70
    64
  3
_____ _ _ _____ _ _ _____ _ _ _____ _ _ ____
 72
    65
 73
     6
 40
2.500000
 49
1.250000
 74
     0
 49
-0.250000
 74
     0
 49
0.250000
 74
     0
 49
-0.250000
 74
     0
 49
0.250000
 74
     0
 49
-0.250000
 74
     0
  0
LTYPE
  5
c0
100
AcDbSymbolTableRecord
100
AcDbLinetypeTableRecord
  2
DOT
 70
    64
  3
...............................................
 72
    65
 73
     2
 40
0.250000
 49
0.000000
 74
     0
 49
-0.250000
 74
     0
  0
LTYPE
  5
c3
100
AcDbSymbolTableRecord
100
AcDbLinetypeTableRecord
  2
DASHDOT
 70
    64
  3
__ . __ . __ . __ . __ . __ . __ . __ . __ . __
 72
    65
 73
     4
 40
1.000000
 49
0.500000
 74
     0
 49
-0.250000
 74
     0
 49
0.000000
 74
     0
 49
-0.250000
 74
     0
  0
LTYPE
  5
c6
100
AcDbSymbolTableRecord
100
AcDbLinetypeTableRecord
  2
BORDER
 70
    64
  3
__ __ . __ __ . __ __ . __ __ . __ __ . __ __
 72
    65
 73
     6
 40
1.750000
 49
0.500000
 74
     0
 49
-0.250000
 74
     0
 49
0.500000
 74
     0
 49
-0.250000
 74
     0
 49
0.000000
 74
     0
 49
-0.250000
 74
     0
  0
LTYPE
  5
c9
100
AcDbSymbolTableRecord
100
AcDbLinetypeTableRecord
  2
DIVIDE
 70
    64
  3
__ . . __ . . __ . . __ . . __ . . __ . . __
 72
    65
 73
     6
 40
1.250000
 49
0.500000
 74
     0
 49
-0.250000
 74
     0
 49
0.000000
 74
     0
 49
-0.250000
 74
     0
 49
0.000000
 74
     0
 49
-0.250000
 74
     0
  0
ENDTAB
  0
TABLE
  2
LAYER
  5
cc
100
AcDbSymbolTable
 70
     2
  0
LAYER
  5
cf
100
AcDbSymbolTableRecord
100
AcDbLayerTableRecord
  2
0
 70
     0
 62
     7
  6
CONTINUOUS
370
 65533
390
	F
  0
LAYER
  5
d2
100
AcDbSymbolTableRecord
100
AcDbLayerTableRecord
  2
B
 70
     0
 62
     7
  6
CONTINUOUS
370
 65533
390
	F
  0
LAYER
  5
d5
100
AcDbSymbolTableRecord
100
AcDbLayerTableRecord
  2
C
 70
     0
 62
     7
  6
CONTINUOUS
370
 65533
390
	F
  0
LAYER
  5
d8
100
AcDbSymbolTableRecord
100
AcDbLayerTableRecord
  2
D
 70
     0
 62
     7
  6
CONTINUOUS
370
 65533
390
	F
  0
LAYER
  5
db
100
AcDbSymbolTableRecord
100
AcDbLayerTableRecord
  2
E
 70
     0
 62
     7
  6
CONTINUOUS
370
 65533
390
	F
  0
LAYER
  5
de
100
AcDbSymbolTableRecord
100
AcDbLayerTableRecord
  2
F
 70
     0
 62
     7
  6
CONTINUOUS
370
 65533
390
	F
  0
LAYER
  5
e1
100
AcDbSymbolTableRecord
100
AcDbLayerTableRecord
  2
G
 70
     0
 62
     7
  6
CONTINUOUS
370
 65533
390
	F
  0
LAYER
  5
e4
100
AcDbSymbolTableRecord
100
AcDbLayerTableRecord
  2
H
 70
     0
 62
     7
  6
CONTINUOUS
370
 65533
390
	F
  0
LAYER
  5
e7
100
AcDbSymbolTableRecord
100
AcDbLayerTableRecord
  2
I
 70
     0
 62
     7
  6
CONTINUOUS
370
 65533
390
	F
  0
LAYER
  5
ea
100
AcDbSymbolTableRecord
100
AcDbLayerTableRecord
  2
J
 70
     0
 62
     7
  6
CONTINUOUS
370
 65533
390
	F
  0
LAYER
  5
ed
100
AcDbSymbolTableRecord
100
AcDbLayerTableRecord
  2
K
 70
     0
 62
     7
  6
CONTINUOUS
370
 65533
390
	F
  0
LAYER
  5
f0
100
AcDbSymbolTableRecord
100
AcDbLayerTableRecord
  2
L
 70
     0
 62
     7
  6
CONTINUOUS
370
 65533
390
	F
  0
LAYER
  5
f3
100
AcDbSymbolTableRecord
100
AcDbLayerTableRecord
  2
M
 70
     0
 62
     7
  6
CONTINUOUS
370
 65533
390
	F
  0
LAYER
  5
f6
100
AcDbSymbolTableRecord
100
AcDbLayerTableRecord
  2
N
 70
     0
 62
     7
  6
CONTINUOUS
370
 65533
390
	F
  0
ENDTAB
  0
TABLE
  2
STYLE
  5
f9
100
AcDbSymbolTable
 70
     2
  0
STYLE
  5
fc
100
AcDbSymbolTableRecord
100
AcDbTextStyleTableRecord
  2
STANDARD
 70
     0
 40
0.000000
 41
0.500000
 50
0.000000
 71
     0
 42
0.300000
  3
txt
  4

  0
STYLE
  5
ff
100
AcDbSymbolTableRecord
100
AcDbTextStyleTableRecord
  2
BIGFONT
 70
    64
 40
0.000000
 41
1.000000
 50
0.000000
 71
     0
 42
0.200000
  3

  4
bigfont
  0
ENDTAB
  0
TABLE
  2
VIEW
  5
102
100
AcDbSymbolTable
 70
     0
  0
ENDTAB
  0
TABLE
  2
UCS
  5
105
100
AcDbSymbolTable
 70
     0
  0
ENDTAB
  0
TABLE
  2
APPID
  5
108
100
AcDbSymbolTable
 70
     3
  0
APPID
  5
10b
100
AcDbSymbolTableRecord
100
AcDbRegAppTableRecord
  2
ACAD
 70
     0
  0
APPID
  5
10e
100
AcDbSymbolTableRecord
100
AcDbRegAppTableRecord
  2
CONTENTTABDATA
 70
     0
  0
APPID
  5
111
100
AcDbSymbolTableRecord
100
AcDbRegAppTableRecord
  2
CONTENTCURRENTTAB
 70
     0
  0
ENDTAB
  0
TABLE
  2
DIMSTYLE
  5
114
330
     0
100
AcDbSymbolTable
 70
     2
100
AcDbDimStyleTable
 70
     1
  0
DIMSTYLE
105
117
100
AcDbSymbolTableRecord
100
AcDbDimStyleTableRecord
  2
STANDARD
 70
     0
  3

  4

  5

  6

  7

 40
1.000000
 41
0.180000
 42
0.062500
 43
0.380000
 44
0.180000
 45
0.000000
 46
0.000000
 47
0.000000
 48
0.000000
140
0.180000
141
0.090000
142
0.000000
143
25.400000
144
1.000000
145
0.000000
146
1.000000
147
0.090000
 71
     0
 72
     0
 73
     1
 74
     1
 75
     0
 76
     0
 77
     0
 78
     0
170
     0
171
     2
172
     0
173
     0
174
     0
175
     0
176
     0
177
     0
178
     0
270
     2
271
     4
272
     4
273
     2
274
     2
340
fc
275
     0
280
     0
281
     0
282
     0
283
     1
284
     0
285
     0
286
     0
287
     3
288
     0
  0
ENDTAB
  0
TABLE
  2
BLOCK_RECORD
  5
11a
100
AcDbSymbolTable
 70
     0
  0
BLOCK_RECORD
  5
11d
100
AcDbSymbolTableRecord
100
AcDbBlockTableRecord
  2
*MODEL_SPACE
  0
BLOCK_RECORD
  5
120
100
AcDbSymbolTableRecord
100
AcDbBlockTableRecord
  2
*PAPER_SPACE
  0
ENDTAB
  0
ENDSEC
  0
SECTION
  2
BLOCKS
  0
BLOCK
  5
123
330
124
100
AcDbEntity
  8
0
100
AcDbBlockBegin
  2
*Model_Space
 70
     0
 10
0.000000
 20
0.000000
 30
0.000000
  3
*Model_Space
  1
 
  0
ENDBLK
  5
126
330
124
100
AcDbEntity
  8
0
100
AcDbBlockEnd
  0
BLOCK
  5
129
330
12a
100
AcDbEntity
 67
     1
  8
0
100
AcDbBlockBegin
  2
*Paper_Space
 70
     0
 10
0.000000
 20
0.000000
 30
0.000000
  3
*Paper_Space
  1
 
  0
ENDBLK
  5
12c
330
12d
100
AcDbEntity
 67
     1
  8
0
100
AcDbBlockEnd
  0
ENDSEC
  0
SECTION
  2
ENTITIES
  0
LINE
  5
12f
100
AcDbEntity
  8
0
370
    20
100
AcDbLine
 10
35.175000
 20
170.450000
 11
21.425000
 21
170.450000
  0
LINE
  5
132
100
AcDbEntity
  8
0
370
    20
100
AcDbLine
 10
20.025000
 20
170.450000
 11
5.650000
 21
170.425000
  0
LINE
  5
135
100
AcDbEntity
  8
0
370
    20
100
AcDbLine
 10
40.325000
 20
170.450000
 11
54.400000
 21
170.450000
  0
LINE
  5
138
100
AcDbEntity
  8
0
370
    20
100
AcDbLine
 10
55.550000
 20
170.450000
 11
65.325000
 21
170.425000
  0
LINE
  5
13b
100
AcDbEntity
  8
0
370
    20
100
AcDbLine
 10
47.175000
 20
170.250000
 11
44.950000
 21
166.925000
  0
LINE
  5
13e
100
AcDbEntity
  8
0
370
    20
100
AcDbLine
 10
48.850000
 20
170.250000
 11
46.625000
 21
166.925000
  0
LINE
  5
141
100
AcDbEntity
  8
0
370
    20
100
AcDbLine
 10
50.525000
 20
170.250000
 11
48.300000
 21
166.925000
  0
LINE
  5
144
100
AcDbEntity
  8
0
370
    20
100
AcDbLine
 10
45.025000
 20
170.450000
 11
46.050000
 21
168.900000
  0
LINE
  5
147
100
AcDbEntity
  8
0
370
    20
100
AcDbLine
 10
43.525000
 20
170.375000
 11
45.375000
 21
167.575000
  0
LINE
  5
14a
100
AcDbEntity
  8
0
370
    20
100
AcDbLine
 10
41.850000
 20
170.375000
 11
44.100000
 21
166.925000
  0
LINE
  5
14d
100
AcDbEntity
  8
0
370
    20
100
AcDbLine
 10
48.950000
 20
167.875000
 11
49.675000
 21
166.925000
  0
LINE
  5
150
100
AcDbEntity
  8
0
370
    20
100
AcDbLine
 10
49.675000
 20
169.025000
 11
51.275000
 21
166.925000
  0
LINE
  5
153
100
AcDbEntity
  8
0
370
    20
100
AcDbLine
 10
28.175000
 20
170.150000
 11
26.075000
 21
167.025000
  0
LINE
  5
156
100
AcDbEntity
  8
0
370
    20
100
AcDbLine
 10
29.850000
 20
170.150000
 11
27.750000
 21
167.025000
  0
LINE
  5
159
100
AcDbEntity
  8
0
370
    20
100
AcDbLine
 10
31.525000
 20
170.150000
 11
29.425000
 21
167.025000
  0
LINE
  5
15c
100
AcDbEntity
  8
0
370
    20
100
AcDbLine
 10
26.200000
 20
170.275000
 11
27.225000
 21
168.725000
  0
LINE
  5
15f
100
AcDbEntity
  8
0
370
    20
100
AcDbLine
 10
24.525000
 20
170.275000
 11
26.375000
 21
167.475000
  0
LINE
  5
162
100
AcDbEntity
  8
0
370
    20
100
AcDbLine
 10
31.950000
 20
170.275000
 11
34.075000
 21
167.025000
  0
LINE
  5
165
100
AcDbEntity
  8
0
370
    20
100
AcDbLine
 10
31.150000
 20
169.025000
 11
32.450000
 21
167.025000
  0
LINE
  5
168
100
AcDbEntity
  8
0
370
    20
100
AcDbLine
 10
30.350000
 20
167.775000
 11
30.825000
 21
167.025000
  0
LINE
  5
16b
100
AcDbEntity
  8
0
370
    20
100
AcDbLine
 10
37.975000
 20
113.450000
 11
37.975000
 21
210.125000
  0
LINE
  5
16e
100
AcDbEntity
  8
0
370
    20
100
AcDbLine
 10
37.975000
 20
210.050000
 11
37.975000
 21
113.450000
  0
LINE
  5
171
100
AcDbEntity
  8
0
370
    20
100
AcDbLine
 10
35.950000
 20
60.725000
 11
39.550000
 21
60.725000
  0
HATCH
  5
174
330
F6
100
AcDbEntity
  8
0
100
AcDbHatch
 10
0.0
 20
0.0
 30
0.0
210
0.0
220
0.0
230
1.0
  2
SOLID
 70
     1
 71
     0
 91
     1
 92
     7
 72
     0
 73
     1
 93
     4
 10
41.575000
 20
168.500000
 10
41.575000
 20
60.675000
 10
40.325000
 20
60.675000
 10
40.325000
 20
168.500000
 97
     1
330
177
 75
     0
 76
     1
 47
0.651316
 98
     1
 10
0.0
 20
0.0
  0
LWPOLYLINE
  5
177
330
F6
100
AcDbEntity
  8
0
100
AcDbPolyline
 90
     4
 70
     1
 43
0.200000
 10
41.575000
 20
168.500000
 10
41.575000
 20
60.675000
 10
40.325000
 20
60.675000
 10
40.325000
 20
168.500000
  0
HATCH
  5
182
330
F6
100
AcDbEntity
  8
0
100
AcDbHatch
 10
0.0
 20
0.0
 30
0.0
210
0.0
220
0.0
230
1.0
  2
SOLID
 70
     1
 71
     0
 91
     1
 92
     7
 72
     0
 73
     1
 93
     4
 10
34.075000
 20
168.500000
 10
35.100000
 20
168.500000
 10
35.100000
 20
60.675000
 10
34.075000
 20
60.675000
 97
     1
330
185
 75
     0
 76
     1
 47
0.651316
 98
     1
 10
0.0
 20
0.0
  0
LWPOLYLINE
  5
185
330
F6
100
AcDbEntity
  8
0
100
AcDbPolyline
 90
     4
 70
     1
 43
0.200000
 10
34.075000
 20
168.500000
 10
35.100000
 20
168.500000
 10
35.100000
 20
60.675000
 10
34.075000
 20
60.675000
  0
LWPOLYLINE
  5
190
100
AcDbEntity
  8
0
100
AcDbPolyline
 90
     4
 70
     1
 43
0.200000
 10
108.425000
 20
154.200000
 10
113.725000
 20
154.200000
 10
113.725000
 20
143.150000
 10
108.425000
 20
143.150000
  0
LINE
  5
19b
100
AcDbEntity
  8
0
370
    20
100
AcDbLine
 10
110.100000
 20
143.150000
 11
110.100000
 21
132.225000
  0
LINE
  5
19e
100
AcDbEntity
  8
0
370
    20
100
AcDbLine
 10
112.075000
 20
143.150000
 11
112.075000
 21
132.225000
  0
LINE
  5
1a1
100
AcDbEntity
  8
0
370
    20
100
AcDbLine
 10
107.900000
 20
126.425000
 11
86.025000
 21
126.425000
  0
LINE
  5
1a4
100
AcDbEntity
  8
0
370
    20
100
AcDbLine
 10
112.075000
 20
132.250000
 11
114.050000
 21
127.250000
  0
HATCH
  5
1a7
330
F6
100
AcDbEntity
  8
0
100
AcDbHatch
 10
0.0
 20
0.0
 30
0.0
210
0.0
220
0.0
230
1.0
  2
SOLID
 70
     1
 71
     0
 91
     1
 92
     7
 72
     0
 73
     1
 93
     5
 10
114.050000
 20
125.550000
 10
108.100000
 20
125.550000
 10
108.100000
 20
127.250000
 10
114.050000
 20
127.250000
 10
114.075000
 20
125.450000
 97
     1
330
1aa
 75
     0
 76
     1
 47
0.651316
 98
     1
 10
0.0
 20
0.0
  0
LWPOLYLINE
  5
1aa
330
F6
100
AcDbEntity
  8
0
100
AcDbPolyline
 90
     5
 70
     1
 43
0.200000
 10
114.050000
 20
125.550000
 10
108.100000
 20
125.550000
 10
108.100000
 20
127.250000
 10
114.050000
 20
127.250000
 10
114.075000
 20
125.450000
  0
LINE
  5
1b7
100
AcDbEntity
  8
0
370
    20
100
AcDbLine
 10
114.050000
 20
127.250000
 11
108.100000
 21
127.250000
  0
LINE
  5
1ba
100
AcDbEntity
  8
0
370
    20
100
AcDbLine
 10
110.125000
 20
132.175000
 11
108.100000
 21
127.250000
  0
LINE
  5
1bd
100
AcDbEntity
  8
0
370
    20
100
AcDbLine
 10
112.075000
 20
120.475000
 11
114.050000
 21
125.550000
  0
LINE
  5
1c0
100
AcDbEntity
  8
0
370
    20
100
AcDbLine
 10
114.050000
 20
125.550000
 11
108.100000
 21
125.550000
  0
LINE
  5
1c3
100
AcDbEntity
  8
0
370
    20
100
AcDbLine
 10
108.100000
 20
125.550000
 11
110.200000
 21
120.475000
  0
LINE
  5
1c6
100
AcDbEntity
  8
0
370
    20
100
AcDbLine
 10
112.075000
 20
120.450000
 11
112.075000
 21
109.525000
  0
LINE
  5
1c9
100
AcDbEntity
  8
0
370
    20
100
AcDbLine
 10
110.200000
 20
120.525000
 11
110.200000
 21
109.600000
  0
LINE
  5
1cc
100
AcDbEntity
  8
0
370
    20
100
AcDbLine
 10
107.750000
 20
103.850000
 11
91.650000
 21
103.850000
  0
LINE
  5
1cf
100
AcDbEntity
  8
0
370
    20
100
AcDbLine
 10
112.075000
 20
109.675000
 11
114.050000
 21
104.675000
  0
LINE
  5
1d2
100
AcDbEntity
  8
0
370
    20
100
AcDbLine
 10
114.050000
 20
104.675000
 11
108.100000
 21
104.675000
  0
LINE
  5
1d5
100
AcDbEntity
  8
0
370
    20
100
AcDbLine
 10
110.125000
 20
109.600000
 11
108.100000
 21
104.675000
  0
LINE
  5
1d8
100
AcDbEntity
  8
0
370
    20
100
AcDbLine
 10
112.075000
 20
97.900000
 11
114.050000
 21
102.975000
  0
LINE
  5
1db
100
AcDbEntity
  8
0
370
    20
100
AcDbLine
 10
114.050000
 20
102.975000
 11
108.100000
 21
102.975000
  0
LINE
  5
1de
100
AcDbEntity
  8
0
370
    20
100
AcDbLine
 10
110.200000
 20
97.900000
 11
108.100000
 21
102.975000
  0
LINE
  5
1e1
100
AcDbEntity
  8
0
370
    20
100
AcDbLine
 10
110.200000
 20
97.900000
 11
110.200000
 21
96.200000
  0
LINE
  5
1e4
100
AcDbEntity
  8
0
370
    20
100
AcDbLine
 10
112.050000
 20
97.950000
 11
112.050000
 21
96.150000
  0
LINE
  5
1e7
100
AcDbEntity
  8
0
370
    20
100
AcDbLine
 10
107.825000
 20
90.525000
 11
97.275000
 21
90.525000
  0
LINE
  5
1ea
100
AcDbEntity
  8
0
370
    20
100
AcDbLine
 10
112.075000
 20
96.350000
 11
114.050000
 21
91.350000
  0
LINE
  5
1ed
100
AcDbEntity
  8
0
370
    20
100
AcDbLine
 10
114.050000
 20
91.350000
 11
108.100000
 21
91.350000
  0
LINE
  5
1f0
100
AcDbEntity
  8
0
370
    20
100
AcDbLine
 10
110.125000
 20
96.275000
 11
108.100000
 21
91.350000
  0
LINE
  5
1f3
100
AcDbEntity
  8
0
370
    20
100
AcDbLine
 10
112.075000
 20
84.575000
 11
114.050000
 21
89.650000
  0
LINE
  5
1f6
100
AcDbEntity
  8
0
370
    20
100
AcDbLine
 10
114.050000
 20
89.650000
 11
108.100000
 21
89.650000
  0
LINE
  5
1f9
100
AcDbEntity
  8
0
370
    20
100
AcDbLine
 10
110.200000
 20
84.575000
 11
108.100000
 21
89.650000
  0
LINE
  5
1fc
100
AcDbEntity
  8
0
370
    20
100
AcDbLine
 10
110.200000
 20
81.200000
 11
110.200000
 21
84.575000
  0
LINE
  5
1ff
100
AcDbEntity
  8
0
370
    20
100
AcDbLine
 10
112.100000
 20
81.200000
 11
112.100000
 21
84.575000
  0
LINE
  5
202
100
AcDbEntity
  8
0
370
    20
100
AcDbLine
 10
86.100000
 20
75.650000
 11
107.875000
 21
75.650000
  0
LINE
  5
205
100
AcDbEntity
  8
0
370
    20
100
AcDbLine
 10
112.075000
 20
81.475000
 11
114.050000
 21
76.475000
  0
LINE
  5
208
100
AcDbEntity
  8
0
370
    20
100
AcDbLine
 10
114.050000
 20
76.475000
 11
108.100000
 21
76.475000
  0
LINE
  5
20b
100
AcDbEntity
  8
0
370
    20
100
AcDbLine
 10
110.125000
 20
81.400000
 11
108.100000
 21
76.475000
  0
LINE
  5
20e
100
AcDbEntity
  8
0
370
    20
100
AcDbLine
 10
112.075000
 20
69.700000
 11
114.050000
 21
74.775000
  0
LINE
  5
211
100
AcDbEntity
  8
0
370
    20
100
AcDbLine
 10
114.050000
 20
74.775000
 11
108.100000
 21
74.775000
  0
LINE
  5
214
100
AcDbEntity
  8
0
370
    20
100
AcDbLine
 10
110.200000
 20
69.700000
 11
108.100000
 21
74.775000
  0
LINE
  5
217
100
AcDbEntity
  8
0
370
    20
100
AcDbLine
 10
110.200000
 20
66.350000
 11
110.200000
 21
69.725000
  0
LINE
  5
21a
100
AcDbEntity
  8
0
370
    20
100
AcDbLine
 10
112.075000
 20
66.275000
 11
112.075000
 21
69.650000
  0
LWPOLYLINE
  5
21d
100
AcDbEntity
  8
0
100
AcDbPolyline
 90
     4
 70
     1
 43
0.200000
 10
109.625000
 20
66.300000
 10
112.500000
 20
66.300000
 10
112.500000
 20
63.500000
 10
109.625000
 20
63.500000
  0
LWPOLYLINE
  5
228
100
AcDbEntity
  8
0
100
AcDbPolyline
 90
     4
 70
     1
 43
0.200000
 10
109.550000
 20
154.275000
 10
109.550000
 20
160.125000
 10
112.500000
 20
160.125000
 10
112.500000
 20
154.275000
  0
LINE
  5
233
100
AcDbEntity
  8
0
370
    20
100
AcDbLine
 10
80.400000
 20
160.125000
 11
109.475000
 21
160.125000
  0
LINE
  5
236
100
AcDbEntity
  8
0
370
    20
100
AcDbLine
 10
109.425000
 20
63.500000
 11
79.775000
 21
63.500000
  0
LINE
  5
239
100
AcDbEntity
  8
0
370
    20
100
AcDbLine
 10
83.525000
 20
160.125000
 11
83.525000
 21
63.575000
  0
LWPOLYLINE
  5
23c
100
AcDbEntity
  8
0
100
AcDbPolyline
 90
     3
 70
     0
 43
0.200000
 10
82.600000
 20
66.450000
 10
83.525000
 20
63.575000
 10
84.425000
 20
66.450000
  0
LWPOLYLINE
  5
245
100
AcDbEntity
  8
0
100
AcDbPolyline
 90
     3
 70
     0
 43
0.200000
 10
84.425000
 20
157.275000
 10
83.525000
 20
160.125000
 10
82.600000
 20
157.275000
  0
LINE
  5
24e
100
AcDbEntity
  8
0
370
    20
100
AcDbLine
 10
89.150000
 20
126.475000
 11
89.150000
 21
75.675000
  0
LWPOLYLINE
  5
251
100
AcDbEntity
  8
0
100
AcDbPolyline
 90
     3
 70
     0
 43
0.200000
 10
88.225000
 20
78.550000
 10
89.150000
 20
75.675000
 10
90.050000
 20
78.550000
  0
LWPOLYLINE
  5
25a
100
AcDbEntity
  8
0
100
AcDbPolyline
 90
     3
 70
     0
 43
0.200000
 10
90.050000
 20
123.625000
 10
89.150000
 20
126.475000
 10
88.225000
 20
123.625000
  0
LINE
  5
263
100
AcDbEntity
  8
0
370
    20
100
AcDbLine
 10
94.775000
 20
103.875000
 11
94.775000
 21
75.750000
  0
LWPOLYLINE
  5
266
100
AcDbEntity
  8
0
100
AcDbPolyline
 90
     3
 70
     0
 43
0.200000
 10
93.850000
 20
78.625000
 10
94.775000
 20
75.750000
 10
95.675000
 20
78.625000
  0
LWPOLYLINE
  5
26f
100
AcDbEntity
  8
0
100
AcDbPolyline
 90
     3
 70
     0
 43
0.200000
 10
95.675000
 20
101.025000
 10
94.775000
 20
103.875000
 10
93.850000
 20
101.025000
  0
LINE
  5
278
100
AcDbEntity
  8
0
370
    20
100
AcDbLine
 10
100.400000
 20
75.850000
 11
100.400000
 21
90.450000
  0
LWPOLYLINE
  5
27b
100
AcDbEntity
  8
0
100
AcDbPolyline
 90
     3
 70
     0
 43
0.200000
 10
99.475000
 20
78.725000
 10
100.400000
 20
75.850000
 10
101.300000
 20
78.725000
  0
LWPOLYLINE
  5
284
100
AcDbEntity
  8
0
100
AcDbPolyline
 90
     3
 70
     0
 43
0.200000
 10
101.300000
 20
87.600000
 10
100.400000
 20
90.450000
 10
99.475000
 20
87.600000
  0
LINE
  5
28d
100
AcDbEntity
  8
0
370
    20
100
AcDbLine
 10
108.100000
 20
127.250000
 11
108.125000
 21
125.300000
  0
LINE
  5
290
100
AcDbEntity
  8
0
370
    20
100
AcDbLine
 10
114.075000
 20
125.450000
 11
114.050000
 21
127.250000
  0
LINE
  5
293
100
AcDbEntity
  8
0
370
    20
100
AcDbLine
 10
108.125000
 20
102.950000
 11
108.100000
 21
104.675000
  0
LINE
  5
296
100
AcDbEntity
  8
0
370
    20
100
AcDbLine
 10
114.050000
 20
104.675000
 11
114.075000
 21
102.950000
  0
LINE
  5
299
100
AcDbEntity
  8
0
370
    20
100
AcDbLine
 10
114.050000
 20
91.350000
 11
114.075000
 21
89.675000
  0
LINE
  5
29c
100
AcDbEntity
  8
0
370
    20
100
AcDbLine
 10
108.225000
 20
89.600000
 11
108.100000
 21
91.350000
  0
LINE
  5
29f
100
AcDbEntity
  8
0
370
    20
100
AcDbLine
 10
114.050000
 20
76.475000
 11
114.075000
 21
74.675000
  0
LINE
  5
2a2
100
AcDbEntity
  8
0
370
    20
100
AcDbLine
 10
108.100000
 20
76.475000
 11
108.125000
 21
74.675000
  0
HATCH
  5
2a5
330
F6
100
AcDbEntity
  8
0
100
AcDbHatch
 10
0.0
 20
0.0
 30
0.0
210
0.0
220
0.0
230
1.0
  2
SOLID
 70
     1
 71
     0
 91
     1
 92
     7
 72
     0
 73
     1
 93
     4
 10
108.100000
 20
91.350000
 10
114.050000
 20
91.350000
 10
114.075000
 20
89.675000
 10
108.225000
 20
89.675000
 97
     1
330
2a8
 75
     0
 76
     1
 47
0.651316
 98
     1
 10
0.0
 20
0.0
  0
LWPOLYLINE
  5
2a8
330
F6
100
AcDbEntity
  8
0
100
AcDbPolyline
 90
     4
 70
     1
 43
0.200000
 10
108.100000
 20
91.350000
 10
114.050000
 20
91.350000
 10
114.075000
 20
89.675000
 10
108.225000
 20
89.675000
  0
HATCH
  5
2b3
330
F6
100
AcDbEntity
  8
0
100
AcDbHatch
 10
0.0
 20
0.0
 30
0.0
210
0.0
220
0.0
230
1.0
  2
SOLID
 70
     1
 71
     0
 91
     1
 92
     7
 72
     0
 73
     1
 93
     4
 10
108.100000
 20
104.675000
 10
114.050000
 20
104.675000
 10
114.075000
 20
102.950000
 10
108.125000
 20
102.950000
 97
     1
330
2b6
 75
     0
 76
     1
 47
0.651316
 98
     1
 10
0.0
 20
0.0
  0
LWPOLYLINE
  5
2b6
330
F6
100
AcDbEntity
  8
0
100
AcDbPolyline
 90
     4
 70
     1
 43
0.200000
 10
108.100000
 20
104.675000
 10
114.050000
 20
104.675000
 10
114.075000
 20
102.950000
 10
108.125000
 20
102.950000
  0
HATCH
  5
2c1
330
F6
100
AcDbEntity
  8
0
100
AcDbHatch
 10
0.0
 20
0.0
 30
0.0
210
0.0
220
0.0
230
1.0
  2
SOLID
 70
     1
 71
     0
 91
     1
 92
     7
 72
     0
 73
     1
 93
     4
 10
108.100000
 20
74.775000
 10
108.100000
 20
76.475000
 10
114.050000
 20
76.475000
 10
114.075000
 20
74.675000
 97
     1
330
2c4
 75
     0
 76
     1
 47
0.651316
 98
     1
 10
0.0
 20
0.0
  0
LWPOLYLINE
  5
2c4
330
F6
100
AcDbEntity
  8
0
100
AcDbPolyline
 90
     4
 70
     1
 43
0.200000
 10
108.100000
 20
74.775000
 10
108.100000
 20
76.475000
 10
114.050000
 20
76.475000
 10
114.075000
 20
74.675000
  0
LINE
  5
2cf
100
AcDbEntity
  8
0
370
    20
100
AcDbLine
 10
37.575000
 20
210.650000
 11
37.575000
 21
113.450000
  0
HATCH
  5
2d2
330
F6
100
AcDbEntity
  8
0
100
AcDbHatch
 10
0.0
 20
0.0
 30
0.0
210
0.0
220
0.0
230
1.0
  2
SOLID
 70
     1
 71
     0
 91
     1
 92
     7
 72
     0
 73
     1
 93
    25
 10
46.450000
 20
204.350000
 10
46.450000
 20
203.925000
 10
46.400000
 20
203.925000
 10
45.025000
 20
204.075000
 10
43.700000
 20
204.475000
 10
42.475000
 20
205.150000
 10
41.400000
 20
206.025000
 10
40.550000
 20
207.125000
 10
39.900000
 20
208.350000
 10
39.500000
 20
209.675000
 10
39.475000
 20
210.300000
 10
39.625000
 20
210.300000
 10
39.625000
 20
210.375000
 10
39.675000
 20
210.375000
 10
39.675000
 20
210.575000
 10
39.750000
 20
210.575000
 10
39.750000
 20
210.975000
 10
39.800000
 20
210.950000
 10
39.925000
 20
209.675000
 10
40.300000
 20
208.425000
 10
40.925000
 20
207.275000
 10
41.775000
 20
206.275000
 10
42.775000
 20
205.450000
 10
43.925000
 20
204.850000
 10
45.175000
 20
204.475000
 97
     1
330
2d5
 75
     0
 76
     1
 47
0.651316
 98
     1
 10
0.0
 20
0.0
  0
LWPOLYLINE
  5
2d5
330
F6
100
AcDbEntity
  8
0
100
AcDbPolyline
 90
    26
 70
     0
 43
0.200000
 10
46.450000
 20
204.350000
 10
46.450000
 20
203.925000
 10
46.400000
 20
203.925000
 10
45.025000
 20
204.075000
 10
43.700000
 20
204.475000
 10
42.475000
 20
205.150000
 10
41.400000
 20
206.025000
 10
40.550000
 20
207.125000
 10
39.900000
 20
208.350000
 10
39.500000
 20
209.675000
 10
39.475000
 20
210.300000
 10
39.625000
 20
210.300000
 10
39.625000
 20
210.375000
 10
39.675000
 20
210.375000
 10
39.675000
 20
210.575000
 10
39.750000
 20
210.575000
 10
39.750000
 20
210.975000
 10
39.800000
 20
210.950000
 10
39.925000
 20
209.675000
 10
40.300000
 20
208.425000
 10
40.925000
 20
207.275000
 10
41.775000
 20
206.275000
 10
42.775000
 20
205.450000
 10
43.925000
 20
204.850000
 10
45.175000
 20
204.475000
 10
46.450000
 20
204.350000
  0
ARC
  5
30c
100
AcDbEntity
  8
0
370
    20
100
AcDbCircle
 10
46.475000
 20
211.000000
 40
7.075000
100
AcDbArc
 50
187.125000
 51
270.000000
  0
ARC
  5
30f
100
AcDbEntity
  8
0
370
    20
100
AcDbCircle
 10
46.450000
 20
211.025000
 40
6.650000
100
AcDbArc
 50
180.375000
 51
270.000000
  0
HATCH
  5
312
330
F6
100
AcDbEntity
  8
0
100
AcDbHatch
 10
0.0
 20
0.0
 30
0.0
210
0.0
220
0.0
230
1.0
  2
SOLID
 70
     1
 71
     0
 91
     1
 92
     7
 72
     0
 73
     1
 93
     4
 10
37.575000
 20
210.125000
 10
37.600000
 20
113.450000
 10
37.975000
 20
113.450000
 10
37.975000
 20
210.150000
 97
     1
330
315
 75
     0
 76
     1
 47
0.651316
 98
     1
 10
0.0
 20
0.0
  0
LWPOLYLINE
  5
315
330
F6
100
AcDbEntity
  8
0
100
AcDbPolyline
 90
     4
 70
     1
 43
0.200000
 10
37.575000
 20
210.125000
 10
37.600000
 20
113.450000
 10
37.975000
 20
113.450000
 10
37.975000
 20
210.150000
  0
LWPOLYLINE
  5
320
100
AcDbEntity
  8
0
100
AcDbPolyline
 90
     4
 70
     1
 43
0.200000
 10
36.600000
 20
110.675000
 10
39.100000
 20
110.675000
 10
39.100000
 20
105.475000
 10
36.600000
 20
105.475000
  0
LINE
  5
32b
100
AcDbEntity
  8
0
370
    20
100
AcDbLine
 10
37.400000
 20
105.475000
 11
37.400000
 21
100.325000
  0
LINE
  5
32e
100
AcDbEntity
  8
0
370
    20
100
AcDbLine
 10
38.325000
 20
105.475000
 11
38.325000
 21
100.325000
  0
LINE
  5
331
100
AcDbEntity
  8
0
370
    20
100
AcDbLine
 10
38.325000
 20
100.325000
 11
39.275000
 21
97.975000
  0
HATCH
  5
334
330
F6
100
AcDbEntity
  8
0
100
AcDbHatch
 10
0.0
 20
0.0
 30
0.0
210
0.0
220
0.0
230
1.0
  2
SOLID
 70
     1
 71
     0
 91
     1
 92
     7
 72
     0
 73
     1
 93
     5
 10
39.275000
 20
97.175000
 10
36.475000
 20
97.175000
 10
36.475000
 20
97.975000
 10
39.275000
 20
97.975000
 10
39.275000
 20
97.100000
 97
     1
330
337
 75
     0
 76
     1
 47
0.651316
 98
     1
 10
0.0
 20
0.0
  0
LWPOLYLINE
  5
337
330
F6
100
AcDbEntity
  8
0
100
AcDbPolyline
 90
     5
 70
     1
 43
0.200000
 10
39.275000
 20
97.175000
 10
36.475000
 20
97.175000
 10
36.475000
 20
97.975000
 10
39.275000
 20
97.975000
 10
39.275000
 20
97.100000
  0
LINE
  5
344
100
AcDbEntity
  8
0
370
    20
100
AcDbLine
 10
39.275000
 20
97.975000
 11
36.475000
 21
97.975000
  0
LINE
  5
347
100
AcDbEntity
  8
0
370
    20
100
AcDbLine
 10
37.400000
 20
100.300000
 11
36.475000
 21
97.975000
  0
LINE
  5
34a
100
AcDbEntity
  8
0
370
    20
100
AcDbLine
 10
38.325000
 20
94.775000
 11
39.275000
 21
97.175000
  0
LINE
  5
34d
100
AcDbEntity
  8
0
370
    20
100
AcDbLine
 10
39.275000
 20
97.175000
 11
36.475000
 21
97.175000
  0
LINE
  5
350
100
AcDbEntity
  8
0
370
    20
100
AcDbLine
 10
36.475000
 20
97.175000
 11
37.450000
 21
94.775000
  0
LINE
  5
353
100
AcDbEntity
  8
0
370
    20
100
AcDbLine
 10
38.325000
 20
94.750000
 11
38.325000
 21
89.600000
  0
LINE
  5
356
100
AcDbEntity
  8
0
370
    20
100
AcDbLine
 10
37.450000
 20
94.800000
 11
37.450000
 21
89.625000
  0
LINE
  5
359
100
AcDbEntity
  8
0
370
    20
100
AcDbLine
 10
38.325000
 20
89.675000
 11
39.275000
 21
87.325000
  0
LINE
  5
35c
100
AcDbEntity
  8
0
370
    20
100
AcDbLine
 10
39.275000
 20
87.325000
 11
36.475000
 21
87.325000
  0
LINE
  5
35f
100
AcDbEntity
  8
0
370
    20
100
AcDbLine
 10
37.400000
 20
89.625000
 11
36.475000
 21
87.325000
  0
LINE
  5
362
100
AcDbEntity
  8
0
370
    20
100
AcDbLine
 10
38.325000
 20
84.125000
 11
39.275000
 21
86.525000
  0
LINE
  5
365
100
AcDbEntity
  8
0
370
    20
100
AcDbLine
 10
39.275000
 20
86.525000
 11
36.475000
 21
86.525000
  0
LINE
  5
368
100
AcDbEntity
  8
0
370
    20
100
AcDbLine
 10
37.450000
 20
84.125000
 11
36.475000
 21
86.525000
  0
LINE
  5
36b
100
AcDbEntity
  8
0
370
    20
100
AcDbLine
 10
37.450000
 20
84.125000
 11
37.450000
 21
83.325000
  0
LINE
  5
36e
100
AcDbEntity
  8
0
370
    20
100
AcDbLine
 10
38.300000
 20
84.125000
 11
38.300000
 21
83.300000
  0
LINE
  5
371
100
AcDbEntity
  8
0
370
    20
100
AcDbLine
 10
38.325000
 20
83.375000
 11
39.275000
 21
81.025000
  0
LINE
  5
374
100
AcDbEntity
  8
0
370
    20
100
AcDbLine
 10
39.275000
 20
81.025000
 11
36.475000
 21
81.025000
  0
LINE
  5
377
100
AcDbEntity
  8
0
370
    20
100
AcDbLine
 10
37.400000
 20
83.350000
 11
36.475000
 21
81.025000
  0
LINE
  5
37a
100
AcDbEntity
  8
0
370
    20
100
AcDbLine
 10
38.325000
 20
77.850000
 11
39.275000
 21
80.225000
  0
LINE
  5
37d
100
AcDbEntity
  8
0
370
    20
100
AcDbLine
 10
39.275000
 20
80.225000
 11
36.475000
 21
80.225000
  0
LINE
  5
380
100
AcDbEntity
  8
0
370
    20
100
AcDbLine
 10
37.450000
 20
77.850000
 11
36.475000
 21
80.225000
  0
LINE
  5
383
100
AcDbEntity
  8
0
370
    20
100
AcDbLine
 10
37.450000
 20
76.250000
 11
37.450000
 21
77.850000
  0
LINE
  5
386
100
AcDbEntity
  8
0
370
    20
100
AcDbLine
 10
38.325000
 20
76.250000
 11
38.325000
 21
77.850000
  0
LINE
  5
389
100
AcDbEntity
  8
0
370
    20
100
AcDbLine
 10
38.325000
 20
76.375000
 11
39.275000
 21
74.025000
  0
LINE
  5
38c
100
AcDbEntity
  8
0
370
    20
100
AcDbLine
 10
39.275000
 20
74.025000
 11
36.475000
 21
74.025000
  0
LINE
  5
38f
100
AcDbEntity
  8
0
370
    20
100
AcDbLine
 10
37.400000
 20
76.350000
 11
36.475000
 21
74.025000
  0
LINE
  5
392
100
AcDbEntity
  8
0
370
    20
100
AcDbLine
 10
38.325000
 20
70.800000
 11
39.275000
 21
73.200000
  0
LINE
  5
395
100
AcDbEntity
  8
0
370
    20
100
AcDbLine
 10
39.275000
 20
73.200000
 11
36.475000
 21
73.200000
  0
LINE
  5
398
100
AcDbEntity
  8
0
370
    20
100
AcDbLine
 10
37.450000
 20
70.800000
 11
36.475000
 21
73.200000
  0
LINE
  5
39b
100
AcDbEntity
  8
0
370
    20
100
AcDbLine
 10
37.450000
 20
69.225000
 11
37.450000
 21
70.825000
  0
LINE
  5
39e
100
AcDbEntity
  8
0
370
    20
100
AcDbLine
 10
38.325000
 20
69.200000
 11
38.325000
 21
70.775000
  0
HATCH
  5
3a1
330
F6
100
AcDbEntity
  8
0
100
AcDbHatch
 10
0.0
 20
0.0
 30
0.0
210
0.0
220
0.0
230
1.0
  2
SOLID
 70
     1
 71
     0
 91
     1
 92
     7
 72
     0
 73
     1
 93
     4
 10
37.175000
 20
69.200000
 10
38.525000
 20
69.200000
 10
38.525000
 20
65.400000
 10
37.175000
 20
65.400000
 97
     1
330
3a4
 75
     0
 76
     1
 47
0.651316
 98
     1
 10
0.0
 20
0.0
  0
LWPOLYLINE
  5
3a4
330
F6
100
AcDbEntity
  8
0
100
AcDbPolyline
 90
     4
 70
     1
 43
0.200000
 10
37.175000
 20
69.200000
 10
38.525000
 20
69.200000
 10
38.525000
 20
65.400000
 10
37.175000
 20
65.400000
  0
LWPOLYLINE
  5
3af
100
AcDbEntity
  8
0
100
AcDbPolyline
 90
     4
 70
     1
 43
0.200000
 10
37.175000
 20
69.200000
 10
38.525000
 20
69.200000
 10
38.525000
 20
65.400000
 10
37.175000
 20
65.400000
  0
LWPOLYLINE
  5
3ba
100
AcDbEntity
  8
0
100
AcDbPolyline
 90
     4
 70
     1
 43
0.200000
 10
37.125000
 20
110.700000
 10
37.125000
 20
113.450000
 10
38.525000
 20
113.450000
 10
38.525000
 20
110.700000
  0
LINE
  5
3c5
100
AcDbEntity
  8
0
370
    20
100
AcDbLine
 10
36.475000
 20
97.975000
 11
36.475000
 21
97.050000
  0
LINE
  5
3c8
100
AcDbEntity
  8
0
370
    20
100
AcDbLine
 10
39.275000
 20
97.100000
 11
39.275000
 21
97.975000
  0
LINE
  5
3cb
100
AcDbEntity
  8
0
370
    20
100
AcDbLine
 10
36.475000
 20
86.500000
 11
36.475000
 21
87.325000
  0
LINE
  5
3ce
100
AcDbEntity
  8
0
370
    20
100
AcDbLine
 10
39.275000
 20
87.325000
 11
39.275000
 21
86.500000
  0
LINE
  5
3d1
100
AcDbEntity
  8
0
370
    20
100
AcDbLine
 10
39.275000
 20
81.025000
 11
39.275000
 21
80.250000
  0
LINE
  5
3d4
100
AcDbEntity
  8
0
370
    20
100
AcDbLine
 10
36.500000
 20
80.200000
 11
36.475000
 21
81.025000
  0
LINE
  5
3d7
100
AcDbEntity
  8
0
370
    20
100
AcDbLine
 10
39.275000
 20
74.025000
 11
39.275000
 21
73.175000
  0
LINE
  5
3da
100
AcDbEntity
  8
0
370
    20
100
AcDbLine
 10
36.475000
 20
74.025000
 11
36.475000
 21
73.175000
  0
HATCH
  5
3dd
330
F6
100
AcDbEntity
  8
0
100
AcDbHatch
 10
0.0
 20
0.0
 30
0.0
210
0.0
220
0.0
230
1.0
  2
SOLID
 70
     1
 71
     0
 91
     1
 92
     7
 72
     0
 73
     1
 93
     4
 10
36.475000
 20
81.025000
 10
39.275000
 20
81.025000
 10
39.275000
 20
80.250000
 10
36.500000
 20
80.250000
 97
     1
330
3e0
 75
     0
 76
     1
 47
0.651316
 98
     1
 10
0.0
 20
0.0
  0
LWPOLYLINE
  5
3e0
330
F6
100
AcDbEntity
  8
0
100
AcDbPolyline
 90
     4
 70
     1
 43
0.200000
 10
36.475000
 20
81.025000
 10
39.275000
 20
81.025000
 10
39.275000
 20
80.250000
 10
36.500000
 20
80.250000
  0
HATCH
  5
3eb
330
F6
100
AcDbEntity
  8
0
100
AcDbHatch
 10
0.0
 20
0.0
 30
0.0
210
0.0
220
0.0
230
1.0
  2
SOLID
 70
     1
 71
     0
 91
     1
 92
     7
 72
     0
 73
     1
 93
     4
 10
36.475000
 20
87.325000
 10
39.275000
 20
87.325000
 10
39.275000
 20
86.500000
 10
36.475000
 20
86.500000
 97
     1
330
3ee
 75
     0
 76
     1
 47
0.651316
 98
     1
 10
0.0
 20
0.0
  0
LWPOLYLINE
  5
3ee
330
F6
100
AcDbEntity
  8
0
100
AcDbPolyline
 90
     4
 70
     1
 43
0.200000
 10
36.475000
 20
87.325000
 10
39.275000
 20
87.325000
 10
39.275000
 20
86.500000
 10
36.475000
 20
86.500000
  0
HATCH
  5
3f9
330
F6
100
AcDbEntity
  8
0
100
AcDbHatch
 10
0.0
 20
0.0
 30
0.0
210
0.0
220
0.0
230
1.0
  2
SOLID
 70
     1
 71
     0
 91
     1
 92
     7
 72
     0
 73
     1
 93
     4
 10
36.475000
 20
73.200000
 10
36.475000
 20
74.025000
 10
39.275000
 20
74.025000
 10
39.275000
 20
73.175000
 97
     1
330
3fc
 75
     0
 76
     1
 47
0.651316
 98
     1
 10
0.0
 20
0.0
  0
LWPOLYLINE
  5
3fc
330
F6
100
AcDbEntity
  8
0
100
AcDbPolyline
 90
     4
 70
     1
 43
0.200000
 10
36.475000
 20
73.200000
 10
36.475000
 20
74.025000
 10
39.275000
 20
74.025000
 10
39.275000
 20
73.175000
  0
LINE
  5
407
100
AcDbEntity
  8
0
370
    20
100
AcDbLine
 10
35.950000
 20
60.725000
 11
35.175000
 21
60.725000
  0
LINE
  5
40a
100
AcDbEntity
  8
0
370
    20
100
AcDbLine
 10
35.175000
 20
170.375000
 11
35.175000
 21
60.725000
  0
LINE
  5
40d
100
AcDbEntity
  8
0
370
    20
100
AcDbLine
 10
40.325000
 20
170.375000
 11
40.325000
 21
60.725000
  0
LINE
  5
410
100
AcDbEntity
  8
0
370
    20
100
AcDbLine
 10
40.325000
 20
60.725000
 11
39.550000
 21
60.725000
  0
HATCH
  5
413
330
F6
100
AcDbEntity
  8
0
100
AcDbHatch
 10
0.0
 20
0.0
 30
0.0
210
0.0
220
0.0
230
1.0
  2
SOLID
 70
     1
 71
     0
 91
     1
 92
     7
 72
     0
 73
     1
 93
     4
 10
34.125000
 20
168.500000
 10
35.200000
 20
168.500000
 10
35.200000
 20
170.375000
 10
34.125000
 20
170.375000
 97
     1
330
416
 75
     0
 76
     1
 47
0.651316
 98
     1
 10
0.0
 20
0.0
  0
LWPOLYLINE
  5
416
330
F6
100
AcDbEntity
  8
0
100
AcDbPolyline
 90
     4
 70
     1
 43
0.200000
 10
34.125000
 20
168.500000
 10
35.200000
 20
168.500000
 10
35.200000
 20
170.375000
 10
34.125000
 20
170.375000
  0
HATCH
  5
421
330
F6
100
AcDbEntity
  8
0
100
AcDbHatch
 10
0.0
 20
0.0
 30
0.0
210
0.0
220
0.0
230
1.0
  2
SOLID
 70
     1
 71
     0
 91
     1
 92
     7
 72
     0
 73
     1
 93
     4
 10
40.325000
 20
168.500000
 10
40.325000
 20
170.325000
 10
41.575000
 20
170.325000
 10
41.575000
 20
168.500000
 97
     1
330
424
 75
     0
 76
     1
 47
0.651316
 98
     1
 10
0.0
 20
0.0
  0
LWPOLYLINE
  5
424
330
F6
100
AcDbEntity
  8
0
100
AcDbPolyline
 90
     4
 70
     1
 43
0.200000
 10
40.325000
 20
168.500000
 10
40.325000
 20
170.325000
 10
41.575000
 20
170.325000
 10
41.575000
 20
168.500000
  0
LINE
  5
42f
100
AcDbEntity
  8
0
370
    40
100
AcDbLine
 10
35.675000
 20
175.500000
 11
35.675000
 21
152.050000
  0
LINE
  5
432
100
AcDbEntity
  8
0
370
    40
100
AcDbLine
 10
39.775000
 20
175.500000
 11
39.775000
 21
152.050000
  0
LINE
  5
435
100
AcDbEntity
  8
0
370
    20
100
AcDbLine
 10
44.250000
 20
225.375000
 11
32.800000
 21
225.375000
  0
LINE
  5
438
100
AcDbEntity
  8
0
370
    20
100
AcDbLine
 10
31.800000
 20
224.375000
 11
31.800000
 21
210.450000
  0
LINE
  5
43b
100
AcDbEntity
  8
0
370
    20
100
AcDbLine
 10
32.800000
 20
209.450000
 11
44.250000
 21
209.450000
  0
LINE
  5
43e
100
AcDbEntity
  8
0
370
    20
100
AcDbLine
 10
45.250000
 20
210.450000
 11
45.250000
 21
224.375000
  0
ARC
  5
441
100
AcDbEntity
  8
0
370
    20
100
AcDbCircle
 10
44.250000
 20
224.375000
 40
1.000000
100
AcDbArc
 50
360.000000
 51
90.000000
  0
ARC
  5
444
100
AcDbEntity
  8
0
370
    20
100
AcDbCircle
 10
32.800000
 20
224.375000
 40
1.000000
100
AcDbArc
 50
90.000000
 51
180.000000
  0
ARC
  5
447
100
AcDbEntity
  8
0
370
    20
100
AcDbCircle
 10
32.800000
 20
210.450000
 40
1.000000
100
AcDbArc
 50
180.000000
 51
270.000000
  0
ARC
  5
44a
100
AcDbEntity
  8
0
370
    20
100
AcDbCircle
 10
44.250000
 20
210.450000
 40
1.000000
100
AcDbArc
 50
270.000000
 51
360.000000
  0
CIRCLE
  5
44d
100
AcDbEntity
  8
0
370
    20
100
AcDbCircle
 10
38.675000
 20
211.025000
 40
0.700000
  0
CIRCLE
  5
450
100
AcDbEntity
  8
0
370
    20
100
AcDbCircle
 10
38.675000
 20
211.025000
 40
1.200000
  0
CIRCLE
  5
453
100
AcDbEntity
  8
0
370
    20
100
AcDbCircle
 10
38.725000
 20
218.375000
 40
5.475000
  0
CIRCLE
  5
456
100
AcDbEntity
  8
0
370
    20
100
AcDbCircle
 10
38.725000
 20
218.375000
 40
4.900000
  0
CIRCLE
  5
459
100
AcDbEntity
  8
0
370
    20
100
AcDbCircle
 10
38.725000
 20
218.375000
 40
1.350000
  0
CIRCLE
  5
45c
100
AcDbEntity
  8
0
370
    20
100
AcDbCircle
 10
34.025000
 20
223.100000
 40
1.175000
  0
CIRCLE
  5
45f
100
AcDbEntity
  8
0
370
    20
100
AcDbCircle
 10
34.025000
 20
223.100000
 40
0.325000
  0
CIRCLE
  5
462
100
AcDbEntity
  8
0
370
    20
100
AcDbCircle
 10
44.225000
 20
224.350000
 40
0.350000
  0
CIRCLE
  5
465
100
AcDbEntity
  8
0
370
    20
100
AcDbCircle
 10
32.825000
 20
224.350000
 40
0.350000
  0
CIRCLE
  5
468
100
AcDbEntity
  8
0
370
    20
100
AcDbCircle
 10
44.225000
 20
210.450000
 40
0.350000
  0
CIRCLE
  5
46b
100
AcDbEntity
  8
0
370
    20
100
AcDbCircle
 10
32.875000
 20
210.450000
 40
0.350000
  0
LINE
  5
46e
100
AcDbEntity
  8
0
370
    20
100
AcDbLine
 10
39.475000
 20
212.925000
 11
38.375000
 21
212.300000
  0
LINE
  5
471
100
AcDbEntity
  8
0
370
    20
100
AcDbLine
 10
39.000000
 20
212.200000
 11
41.150000
 21
213.500000
  0
LINE
  5
474
100
AcDbEntity
  8
0
370
    20
100
AcDbLine
 10
38.600000
 20
212.450000
 11
37.750000
 21
212.950000
  0
LINE
  5
477
100
AcDbEntity
  8
0
370
    20
100
AcDbLine
 10
36.150000
 20
213.500000
 11
38.300000
 21
212.200000
  0
HATCH
  5
47a
330
F6
100
AcDbEntity
  8
0
100
AcDbHatch
 10
0.0
 20
0.0
 30
0.0
210
0.0
220
0.0
230
1.0
  2
SOLID
 70
     1
 71
     0
 91
     1
 92
     7
 72
     0
 73
     1
 93
     3
 10
37.525000
 20
210.150000
 10
37.900000
 20
210.150000
 10
37.525000
 20
210.650000
 97
     1
330
47d
 75
     0
 76
     1
 47
0.651316
 98
     1
 10
0.0
 20
0.0
  0
LWPOLYLINE
  5
47d
330
F6
100
AcDbEntity
  8
0
100
AcDbPolyline
 90
     3
 70
     1
 43
0.200000
 10
37.525000
 20
210.150000
 10
37.900000
 20
210.150000
 10
37.525000
 20
210.650000
  0
HATCH
  5
486
330
F6
100
AcDbEntity
  8
0
100
AcDbHatch
 10
0.0
 20
0.0
 30
0.0
210
0.0
220
0.0
230
1.0
  2
SOLID
 70
     1
 71
     0
 91
     1
 92
     7
 72
     0
 73
     1
 93
     4
 10
40.325000
 20
213.150000
 10
39.325000
 20
212.950000
 10
38.300000
 20
212.125000
 10
39.125000
 20
212.300000
 97
     1
330
489
 75
     0
 76
     1
 47
0.651316
 98
     1
 10
0.0
 20
0.0
  0
LWPOLYLINE
  5
489
330
F6
100
AcDbEntity
  8
0
100
AcDbPolyline
 90
     4
 70
     1
 43
0.200000
 10
40.325000
 20
213.150000
 10
39.325000
 20
212.950000
 10
38.300000
 20
212.125000
 10
39.125000
 20
212.300000
  0
HATCH
  5
494
330
F6
100
AcDbEntity
  8
0
100
AcDbHatch
 10
0.0
 20
0.0
 30
0.0
210
0.0
220
0.0
230
1.0
  2
SOLID
 70
     1
 71
     0
 91
     1
 92
     7
 72
     0
 73
     1
 93
     7
 10
38.525000
 20
212.450000
 10
37.875000
 20
212.950000
 10
36.575000
 20
213.225000
 10
38.175000
 20
212.250000
 10
38.225000
 20
212.200000
 10
38.175000
 20
212.200000
 10
38.175000
 20
212.250000
 97
     1
330
497
 75
     0
 76
     1
 47
0.651316
 98
     1
 10
0.0
 20
0.0
  0
LWPOLYLINE
  5
497
330
F6
100
AcDbEntity
  8
0
100
AcDbPolyline
 90
     7
 70
     1
 43
0.200000
 10
38.525000
 20
212.450000
 10
37.875000
 20
212.950000
 10
36.575000
 20
213.225000
 10
38.175000
 20
212.250000
 10
38.225000
 20
212.200000
 10
38.175000
 20
212.200000
 10
38.175000
 20
212.250000
  0
LINE
  5
4a8
100
AcDbEntity
  8
0
370
    20
100
AcDbLine
 10
65.575000
 20
208.175000
 11
92.550000
 21
208.175000
  0
LINE
  5
4ab
100
AcDbEntity
  8
0
370
    20
100
AcDbLine
 10
92.925000
 20
208.025000
 11
93.600000
 21
207.350000
  0
LINE
  5
4ae
100
AcDbEntity
  8
0
370
    20
100
AcDbLine
 10
93.775000
 20
206.950000
 11
93.775000
 21
183.525000
  0
LINE
  5
4b1
100
AcDbEntity
  8
0
370
    20
100
AcDbLine
 10
93.600000
 20
183.150000
 11
92.875000
 21
182.425000
  0
LINE
  5
4b4
100
AcDbEntity
  8
0
370
    20
100
AcDbLine
 10
92.500000
 20
182.250000
 11
65.625000
 21
182.250000
  0
LINE
  5
4b7
100
AcDbEntity
  8
0
370
    20
100
AcDbLine
 10
65.225000
 20
182.425000
 11
64.550000
 21
183.100000
  0
LINE
  5
4ba
100
AcDbEntity
  8
0
370
    20
100
AcDbLine
 10
64.400000
 20
183.475000
 11
64.400000
 21
207.000000
  0
LINE
  5
4bd
100
AcDbEntity
  8
0
370
    20
100
AcDbLine
 10
64.550000
 20
207.400000
 11
65.175000
 21
208.025000
  0
ARC
  5
4c0
100
AcDbEntity
  8
0
370
    20
100
AcDbCircle
 10
92.500000
 20
207.575000
 40
0.600000
100
AcDbArc
 50
45.437500
 51
90.000000
  0
ARC
  5
4c3
100
AcDbEntity
  8
0
370
    20
100
AcDbCircle
 10
93.175000
 20
206.925000
 40
0.575000
100
AcDbArc
 50
360.000000
 51
45.437500
  0
ARC
  5
4c6
100
AcDbEntity
  8
0
370
    20
100
AcDbCircle
 10
93.150000
 20
183.575000
 40
0.600000
100
AcDbArc
 50
315.375000
 51
360.000000
  0
ARC
  5
4c9
100
AcDbEntity
  8
0
370
    20
100
AcDbCircle
 10
92.475000
 20
182.850000
 40
0.575000
100
AcDbArc
 50
270.000000
 51
315.375000
  0
ARC
  5
4cc
100
AcDbEntity
  8
0
370
    20
100
AcDbCircle
 10
65.650000
 20
182.875000
 40
0.600000
100
AcDbArc
 50
225.437500
 51
270.000000
  0
ARC
  5
4cf
100
AcDbEntity
  8
0
370
    20
100
AcDbCircle
 10
64.975000
 20
183.525000
 40
0.575000
100
AcDbArc
 50
180.000000
 51
225.437500
  0
ARC
  5
4d2
100
AcDbEntity
  8
0
370
    20
100
AcDbCircle
 10
64.975000
 20
207.000000
 40
0.575000
100
AcDbArc
 50
134.687500
 51
180.000000
  0
ARC
  5
4d5
100
AcDbEntity
  8
0
370
    20
100
AcDbCircle
 10
65.600000
 20
207.575000
 40
0.600000
100
AcDbArc
 50
90.000000
 51
134.687500
  0
LINE
  5
4d8
100
AcDbEntity
  8
0
370
    20
100
AcDbLine
 10
66.175000
 20
207.650000
 11
92.025000
 21
207.650000
  0
LINE
  5
4db
100
AcDbEntity
  8
0
370
    20
100
AcDbLine
 10
92.400000
 20
207.525000
 11
93.050000
 21
206.875000
  0
LINE
  5
4de
100
AcDbEntity
  8
0
370
    20
100
AcDbLine
 10
93.225000
 20
206.475000
 11
93.225000
 21
183.975000
  0
LINE
  5
4e1
100
AcDbEntity
  8
0
370
    20
100
AcDbLine
 10
93.050000
 20
183.625000
 11
92.375000
 21
182.950000
  0
LINE
  5
4e4
100
AcDbEntity
  8
0
370
    20
100
AcDbLine
 10
92.025000
 20
182.775000
 11
66.200000
 21
182.775000
  0
LINE
  5
4e7
100
AcDbEntity
  8
0
370
    20
100
AcDbLine
 10
65.800000
 20
182.950000
 11
65.150000
 21
183.600000
  0
LINE
  5
4ea
100
AcDbEntity
  8
0
370
    20
100
AcDbLine
 10
65.025000
 20
183.950000
 11
65.025000
 21
206.500000
  0
LINE
  5
4ed
100
AcDbEntity
  8
0
370
    20
100
AcDbLine
 10
65.150000
 20
206.900000
 11
65.775000
 21
207.525000
  0
ARC
  5
4f0
100
AcDbEntity
  8
0
370
    20
100
AcDbCircle
 10
92.000000
 20
207.075000
 40
0.575000
100
AcDbArc
 50
45.437500
 51
90.000000
  0
ELLIPSE
  5
4f3
100
AcDbEntity
  8
0
370
    20
100
AcDbEllipse
 10
92.625000
 20
206.450000
 30
0.000000
 11
0.575000
 21
-0.000000000000000
 31
0.000000
210
0.000000
220
0.000000
230
1.000000
 40
0.956522
 41
0.000000
 42
0.813010
  0
ARC
  5
4f6
100
AcDbEntity
  8
0
370
    20
100
AcDbCircle
 10
92.625000
 20
184.000000
 40
0.575000
100
AcDbArc
 50
314.937500
 51
360.000000
  0
ARC
  5
4f9
100
AcDbEntity
  8
0
370
    20
100
AcDbCircle
 10
91.975000
 20
183.375000
 40
0.575000
100
AcDbArc
 50
270.000000
 51
314.937500
  0
ARC
  5
4fc
100
AcDbEntity
  8
0
370
    20
100
AcDbCircle
 10
66.225000
 20
183.375000
 40
0.575000
100
AcDbArc
 50
225.437500
 51
270.000000
  0
ARC
  5
4ff
100
AcDbEntity
  8
0
370
    20
100
AcDbCircle
 10
65.575000
 20
184.000000
 40
0.550000
100
AcDbArc
 50
180.000000
 51
225.437500
  0
ARC
  5
502
100
AcDbEntity
  8
0
370
    20
100
AcDbCircle
 10
65.600000
 20
206.500000
 40
0.575000
100
AcDbArc
 50
135.125000
 51
180.000000
  0
ARC
  5
505
100
AcDbEntity
  8
0
370
    20
100
AcDbCircle
 10
66.200000
 20
207.075000
 40
0.575000
100
AcDbArc
 50
90.000000
 51
135.125000
  0
LWPOLYLINE
  5
508
100
AcDbEntity
  8
0
100
AcDbPolyline
 90
     4
 70
     1
 43
0.200000
 10
66.675000
 20
206.925000
 10
91.375000
 20
206.925000
 10
92.525000
 20
205.575000
 10
65.850000
 20
205.575000
  0
LWPOLYLINE
  5
513
100
AcDbEntity
  8
0
100
AcDbPolyline
 90
     4
 70
     0
 43
0.200000
 10
65.850000
 20
205.575000
 10
65.850000
 20
183.700000
 10
92.525000
 20
183.700000
 10
92.525000
 20
205.575000
  0
LINE
  5
51e
100
AcDbEntity
  8
0
370
    20
100
AcDbLine
 10
80.750000
 20
205.575000
 11
80.750000
 21
183.700000
  0
LINE
  5
521
100
AcDbEntity
  8
0
370
    20
100
AcDbLine
 10
65.850000
 20
198.175000
 11
80.850000
 21
198.175000
  0
LINE
  5
524
100
AcDbEntity
  8
0
370
    20
100
AcDbLine
 10
80.750000
 20
190.375000
 11
65.850000
 21
190.375000
  0
HATCH
  5
527
330
F6
100
AcDbEntity
  8
0
100
AcDbHatch
 10
0.0
 20
0.0
 30
0.0
210
0.0
220
0.0
230
1.0
  2
SOLID
 70
     1
 71
     0
 91
     1
 92
     7
 72
     0
 73
     1
 93
     4
 10
83.650000
 20
203.300000
 10
91.275000
 20
203.300000
 10
91.275000
 20
195.800000
 10
83.650000
 20
195.800000
 97
     1
330
52a
 75
     0
 76
     1
 47
0.651316
 98
     1
 10
0.0
 20
0.0
  0
LWPOLYLINE
  5
52a
330
F6
100
AcDbEntity
  8
0
100
AcDbPolyline
 90
     4
 70
     1
 43
0.200000
 10
83.650000
 20
203.300000
 10
91.275000
 20
203.300000
 10
91.275000
 20
195.800000
 10
83.650000
 20
195.800000
  0
LWPOLYLINE
  5
535
100
AcDbEntity
  8
0
100
AcDbPolyline
 90
     4
 70
     1
 43
0.200000
 10
83.650000
 20
203.300000
 10
91.275000
 20
203.300000
 10
91.275000
 20
195.800000
 10
83.650000
 20
195.800000
  0
LWPOLYLINE
  5
540
100
AcDbEntity
  8
0
100
AcDbPolyline
 90
     4
 70
     1
 43
0.200000
 10
83.650000
 20
191.825000
 10
91.275000
 20
191.825000
 10
91.275000
 20
185.375000
 10
83.650000
 20
185.375000
  0
HATCH
  5
54b
330
F6
100
AcDbEntity
  8
0
100
AcDbHatch
 10
0.0
 20
0.0
 30
0.0
210
0.0
220
0.0
230
1.0
  2
SOLID
 70
     1
 71
     0
 91
     1
 92
     7
 72
     0
 73
     1
 93
     4
 10
90.025000
 20
204.750000
 10
90.950000
 20
204.750000
 10
90.950000
 20
203.800000
 10
90.025000
 20
203.800000
 97
     1
330
54e
 75
     0
 76
     1
 47
0.651316
 98
     1
 10
0.0
 20
0.0
  0
LWPOLYLINE
  5
54e
330
F6
100
AcDbEntity
  8
0
100
AcDbPolyline
 90
     4
 70
     1
 43
0.200000
 10
90.025000
 20
204.750000
 10
90.950000
 20
204.750000
 10
90.950000
 20
203.800000
 10
90.025000
 20
203.800000
  0
LWPOLYLINE
  5
559
100
AcDbEntity
  8
0
100
AcDbPolyline
 90
     4
 70
     1
 43
0.200000
 10
90.025000
 20
204.750000
 10
90.950000
 20
204.750000
 10
90.950000
 20
203.800000
 10
90.025000
 20
203.800000
  0
HATCH
  5
564
330
F6
100
AcDbEntity
  8
0
100
AcDbHatch
 10
0.0
 20
0.0
 30
0.0
210
0.0
220
0.0
230
1.0
  2
SOLID
 70
     1
 71
     0
 91
     1
 92
     7
 72
     0
 73
     1
 93
     4
 10
81.675000
 20
203.925000
 10
82.825000
 20
203.925000
 10
82.825000
 20
202.875000
 10
81.675000
 20
202.875000
 97
     1
330
567
 75
     0
 76
     1
 47
0.651316
 98
     1
 10
0.0
 20
0.0
  0
LWPOLYLINE
  5
567
330
F6
100
AcDbEntity
  8
0
100
AcDbPolyline
 90
     4
 70
     1
 43
0.200000
 10
81.675000
 20
203.925000
 10
82.825000
 20
203.925000
 10
82.825000
 20
202.875000
 10
81.675000
 20
202.875000
  0
LWPOLYLINE
  5
572
100
AcDbEntity
  8
0
100
AcDbPolyline
 90
     4
 70
     1
 43
0.200000
 10
81.675000
 20
203.925000
 10
82.825000
 20
203.925000
 10
82.825000
 20
202.875000
 10
81.675000
 20
202.875000
  0
LINE
  5
57d
100
AcDbEntity
  8
0
370
    20
100
AcDbLine
 10
81.050000
 20
205.575000
 11
81.050000
 21
183.700000
  0
HATCH
  5
580
330
F6
100
AcDbEntity
  8
0
100
AcDbHatch
 10
0.0
 20
0.0
 30
0.0
210
0.0
220
0.0
230
1.0
  2
SOLID
 70
     1
 71
     0
 91
     1
 92
     7
 72
     0
 73
     1
 93
     4
 10
81.675000
 20
202.475000
 10
82.825000
 20
202.475000
 10
82.825000
 20
201.425000
 10
81.675000
 20
201.425000
 97
     1
330
583
 75
     0
 76
     1
 47
0.651316
 98
     1
 10
0.0
 20
0.0
  0
LWPOLYLINE
  5
583
330
F6
100
AcDbEntity
  8
0
100
AcDbPolyline
 90
     4
 70
     1
 43
0.200000
 10
81.675000
 20
202.475000
 10
82.825000
 20
202.475000
 10
82.825000
 20
201.425000
 10
81.675000
 20
201.425000
  0
LWPOLYLINE
  5
58e
100
AcDbEntity
  8
0
100
AcDbPolyline
 90
     4
 70
     1
 43
0.200000
 10
81.675000
 20
202.475000
 10
82.825000
 20
202.475000
 10
82.825000
 20
201.425000
 10
81.675000
 20
201.425000
  0
HATCH
  5
599
330
F6
100
AcDbEntity
  8
0
100
AcDbHatch
 10
0.0
 20
0.0
 30
0.0
210
0.0
220
0.0
230
1.0
  2
SOLID
 70
     1
 71
     0
 91
     1
 92
     7
 72
     0
 73
     1
 93
     4
 10
81.675000
 20
201.025000
 10
82.825000
 20
201.025000
 10
82.825000
 20
199.975000
 10
81.675000
 20
199.975000
 97
     1
330
59c
 75
     0
 76
     1
 47
0.651316
 98
     1
 10
0.0
 20
0.0
  0
LWPOLYLINE
  5
59c
330
F6
100
AcDbEntity
  8
0
100
AcDbPolyline
 90
     4
 70
     1
 43
0.200000
 10
81.675000
 20
201.025000
 10
82.825000
 20
201.025000
 10
82.825000
 20
199.975000
 10
81.675000
 20
199.975000
  0
HATCH
  5
5a7
330
F6
100
AcDbEntity
  8
0
100
AcDbHatch
 10
0.0
 20
0.0
 30
0.0
210
0.0
220
0.0
230
1.0
  2
SOLID
 70
     1
 71
     0
 91
     1
 92
     7
 72
     0
 73
     1
 93
     4
 10
81.675000
 20
201.025000
 10
82.825000
 20
201.025000
 10
82.825000
 20
199.975000
 10
81.675000
 20
199.975000
 97
     1
330
5aa
 75
     0
 76
     1
 47
0.651316
 98
     1
 10
0.0
 20
0.0
  0
LWPOLYLINE
  5
5aa
330
F6
100
AcDbEntity
  8
0
100
AcDbPolyline
 90
     4
 70
     1
 43
0.200000
 10
81.675000
 20
201.025000
 10
82.825000
 20
201.025000
 10
82.825000
 20
199.975000
 10
81.675000
 20
199.975000
  0
LWPOLYLINE
  5
5b5
100
AcDbEntity
  8
0
100
AcDbPolyline
 90
     4
 70
     1
 43
0.200000
 10
81.675000
 20
201.025000
 10
82.825000
 20
201.025000
 10
82.825000
 20
199.975000
 10
81.675000
 20
199.975000
  0
HATCH
  5
5c0
330
F6
100
AcDbEntity
  8
0
100
AcDbHatch
 10
0.0
 20
0.0
 30
0.0
210
0.0
220
0.0
230
1.0
  2
SOLID
 70
     1
 71
     0
 91
     1
 92
     7
 72
     0
 73
     1
 93
     4
 10
81.675000
 20
199.575000
 10
82.825000
 20
199.575000
 10
82.825000
 20
198.525000
 10
81.675000
 20
198.525000
 97
     1
330
5c3
 75
     0
 76
     1
 47
0.651316
 98
     1
 10
0.0
 20
0.0
  0
LWPOLYLINE
  5
5c3
330
F6
100
AcDbEntity
  8
0
100
AcDbPolyline
 90
     4
 70
     1
 43
0.200000
 10
81.675000
 20
199.575000
 10
82.825000
 20
199.575000
 10
82.825000
 20
198.525000
 10
81.675000
 20
198.525000
  0
HATCH
  5
5ce
330
F6
100
AcDbEntity
  8
0
100
AcDbHatch
 10
0.0
 20
0.0
 30
0.0
210
0.0
220
0.0
230
1.0
  2
SOLID
 70
     1
 71
     0
 91
     1
 92
     7
 72
     0
 73
     1
 93
     4
 10
81.675000
 20
199.575000
 10
82.825000
 20
199.575000
 10
82.825000
 20
198.525000
 10
81.675000
 20
198.525000
 97
     1
330
5d1
 75
     0
 76
     1
 47
0.651316
 98
     1
 10
0.0
 20
0.0
  0
LWPOLYLINE
  5
5d1
330
F6
100
AcDbEntity
  8
0
100
AcDbPolyline
 90
     4
 70
     1
 43
0.200000
 10
81.675000
 20
199.575000
 10
82.825000
 20
199.575000
 10
82.825000
 20
198.525000
 10
81.675000
 20
198.525000
  0
LWPOLYLINE
  5
5dc
100
AcDbEntity
  8
0
100
AcDbPolyline
 90
     4
 70
     1
 43
0.200000
 10
81.675000
 20
199.575000
 10
82.825000
 20
199.575000
 10
82.825000
 20
198.525000
 10
81.675000
 20
198.525000
  0
HATCH
  5
5e7
330
F6
100
AcDbEntity
  8
0
100
AcDbHatch
 10
0.0
 20
0.0
 30
0.0
210
0.0
220
0.0
230
1.0
  2
SOLID
 70
     1
 71
     0
 91
     1
 92
     7
 72
     0
 73
     1
 93
     4
 10
81.675000
 20
198.125000
 10
82.825000
 20
198.125000
 10
82.825000
 20
197.075000
 10
81.675000
 20
197.075000
 97
     1
330
5ea
 75
     0
 76
     1
 47
0.651316
 98
     1
 10
0.0
 20
0.0
  0
LWPOLYLINE
  5
5ea
330
F6
100
AcDbEntity
  8
0
100
AcDbPolyline
 90
     4
 70
     1
 43
0.200000
 10
81.675000
 20
198.125000
 10
82.825000
 20
198.125000
 10
82.825000
 20
197.075000
 10
81.675000
 20
197.075000
  0
HATCH
  5
5f5
330
F6
100
AcDbEntity
  8
0
100
AcDbHatch
 10
0.0
 20
0.0
 30
0.0
210
0.0
220
0.0
230
1.0
  2
SOLID
 70
     1
 71
     0
 91
     1
 92
     7
 72
     0
 73
     1
 93
     4
 10
81.675000
 20
198.125000
 10
82.825000
 20
198.125000
 10
82.825000
 20
197.075000
 10
81.675000
 20
197.075000
 97
     1
330
5f8
 75
     0
 76
     1
 47
0.651316
 98
     1
 10
0.0
 20
0.0
  0
LWPOLYLINE
  5
5f8
330
F6
100
AcDbEntity
  8
0
100
AcDbPolyline
 90
     4
 70
     1
 43
0.200000
 10
81.675000
 20
198.125000
 10
82.825000
 20
198.125000
 10
82.825000
 20
197.075000
 10
81.675000
 20
197.075000
  0
HATCH
  5
603
330
F6
100
AcDbEntity
  8
0
100
AcDbHatch
 10
0.0
 20
0.0
 30
0.0
210
0.0
220
0.0
230
1.0
  2
SOLID
 70
     1
 71
     0
 91
     1
 92
     7
 72
     0
 73
     1
 93
     4
 10
81.675000
 20
198.125000
 10
82.825000
 20
198.125000
 10
82.825000
 20
197.075000
 10
81.675000
 20
197.075000
 97
     1
330
606
 75
     0
 76
     1
 47
0.651316
 98
     1
 10
0.0
 20
0.0
  0
LWPOLYLINE
  5
606
330
F6
100
AcDbEntity
  8
0
100
AcDbPolyline
 90
     4
 70
     1
 43
0.200000
 10
81.675000
 20
198.125000
 10
82.825000
 20
198.125000
 10
82.825000
 20
197.075000
 10
81.675000
 20
197.075000
  0
LWPOLYLINE
  5
611
100
AcDbEntity
  8
0
100
AcDbPolyline
 90
     4
 70
     1
 43
0.200000
 10
81.675000
 20
198.125000
 10
82.825000
 20
198.125000
 10
82.825000
 20
197.075000
 10
81.675000
 20
197.075000
  0
HATCH
  5
61c
330
F6
100
AcDbEntity
  8
0
100
AcDbHatch
 10
0.0
 20
0.0
 30
0.0
210
0.0
220
0.0
230
1.0
  2
SOLID
 70
     1
 71
     0
 91
     1
 92
     7
 72
     0
 73
     1
 93
     4
 10
81.675000
 20
193.325000
 10
82.825000
 20
193.325000
 10
82.825000
 20
192.275000
 10
81.675000
 20
192.275000
 97
     1
330
61f
 75
     0
 76
     1
 47
0.651316
 98
     1
 10
0.0
 20
0.0
  0
LWPOLYLINE
  5
61f
330
F6
100
AcDbEntity
  8
0
100
AcDbPolyline
 90
     4
 70
     1
 43
0.200000
 10
81.675000
 20
193.325000
 10
82.825000
 20
193.325000
 10
82.825000
 20
192.275000
 10
81.675000
 20
192.275000
  0
LWPOLYLINE
  5
62a
100
AcDbEntity
  8
0
100
AcDbPolyline
 90
     4
 70
     1
 43
0.200000
 10
81.675000
 20
193.325000
 10
82.825000
 20
193.325000
 10
82.825000
 20
192.275000
 10
81.675000
 20
192.275000
  0
HATCH
  5
635
330
F6
100
AcDbEntity
  8
0
100
AcDbHatch
 10
0.0
 20
0.0
 30
0.0
210
0.0
220
0.0
230
1.0
  2
SOLID
 70
     1
 71
     0
 91
     1
 92
     7
 72
     0
 73
     1
 93
     4
 10
81.675000
 20
189.875000
 10
82.825000
 20
189.875000
 10
82.825000
 20
188.825000
 10
81.675000
 20
188.825000
 97
     1
330
638
 75
     0
 76
     1
 47
0.651316
 98
     1
 10
0.0
 20
0.0
  0
LWPOLYLINE
  5
638
330
F6
100
AcDbEntity
  8
0
100
AcDbPolyline
 90
     4
 70
     1
 43
0.200000
 10
81.675000
 20
189.875000
 10
82.825000
 20
189.875000
 10
82.825000
 20
188.825000
 10
81.675000
 20
188.825000
  0
LWPOLYLINE
  5
643
100
AcDbEntity
  8
0
100
AcDbPolyline
 90
     4
 70
     1
 43
0.200000
 10
81.675000
 20
189.875000
 10
82.825000
 20
189.875000
 10
82.825000
 20
188.825000
 10
81.675000
 20
188.825000
  0
HATCH
  5
64e
330
F6
100
AcDbEntity
  8
0
100
AcDbHatch
 10
0.0
 20
0.0
 30
0.0
210
0.0
220
0.0
230
1.0
  2
SOLID
 70
     1
 71
     0
 91
     1
 92
     7
 72
     0
 73
     1
 93
     4
 10
81.675000
 20
188.225000
 10
82.825000
 20
188.225000
 10
82.825000
 20
187.175000
 10
81.675000
 20
187.175000
 97
     1
330
651
 75
     0
 76
     1
 47
0.651316
 98
     1
 10
0.0
 20
0.0
  0
LWPOLYLINE
  5
651
330
F6
100
AcDbEntity
  8
0
100
AcDbPolyline
 90
     4
 70
     1
 43
0.200000
 10
81.675000
 20
188.225000
 10
82.825000
 20
188.225000
 10
82.825000
 20
187.175000
 10
81.675000
 20
187.175000
  0
LWPOLYLINE
  5
65c
100
AcDbEntity
  8
0
100
AcDbPolyline
 90
     4
 70
     1
 43
0.200000
 10
81.675000
 20
188.225000
 10
82.825000
 20
188.225000
 10
82.825000
 20
187.175000
 10
81.675000
 20
187.175000
  0
HATCH
  5
667
330
F6
100
AcDbEntity
  8
0
100
AcDbHatch
 10
0.0
 20
0.0
 30
0.0
210
0.0
220
0.0
230
1.0
  2
SOLID
 70
     1
 71
     0
 91
     1
 92
     7
 72
     0
 73
     1
 93
     4
 10
81.675000
 20
186.650000
 10
82.825000
 20
186.650000
 10
82.825000
 20
185.600000
 10
81.675000
 20
185.600000
 97
     1
330
66a
 75
     0
 76
     1
 47
0.651316
 98
     1
 10
0.0
 20
0.0
  0
LWPOLYLINE
  5
66a
330
F6
100
AcDbEntity
  8
0
100
AcDbPolyline
 90
     4
 70
     1
 43
0.200000
 10
81.675000
 20
186.650000
 10
82.825000
 20
186.650000
 10
82.825000
 20
185.600000
 10
81.675000
 20
185.600000
  0
HATCH
  5
675
330
F6
100
AcDbEntity
  8
0
100
AcDbHatch
 10
0.0
 20
0.0
 30
0.0
210
0.0
220
0.0
230
1.0
  2
SOLID
 70
     1
 71
     0
 91
     1
 92
     7
 72
     0
 73
     1
 93
     4
 10
81.675000
 20
186.650000
 10
82.825000
 20
186.650000
 10
82.825000
 20
185.600000
 10
81.675000
 20
185.600000
 97
     1
330
678
 75
     0
 76
     1
 47
0.651316
 98
     1
 10
0.0
 20
0.0
  0
LWPOLYLINE
  5
678
330
F6
100
AcDbEntity
  8
0
100
AcDbPolyline
 90
     4
 70
     1
 43
0.200000
 10
81.675000
 20
186.650000
 10
82.825000
 20
186.650000
 10
82.825000
 20
185.600000
 10
81.675000
 20
185.600000
  0
LWPOLYLINE
  5
683
100
AcDbEntity
  8
0
100
AcDbPolyline
 90
     4
 70
     1
 43
0.200000
 10
81.675000
 20
186.650000
 10
82.825000
 20
186.650000
 10
82.825000
 20
185.600000
 10
81.675000
 20
185.600000
  0
HATCH
  5
68e
330
F6
100
AcDbEntity
  8
0
100
AcDbHatch
 10
0.0
 20
0.0
 30
0.0
210
0.0
220
0.0
230
1.0
  2
SOLID
 70
     1
 71
     0
 91
     1
 92
     7
 72
     0
 73
     1
 93
     4
 10
83.975000
 20
191.525000
 10
90.875000
 20
191.525000
 10
90.875000
 20
185.675000
 10
83.975000
 20
185.675000
 97
     1
330
691
 75
     0
 76
     1
 47
0.651316
 98
     1
 10
0.0
 20
0.0
  0
LWPOLYLINE
  5
691
330
F6
100
AcDbEntity
  8
0
100
AcDbPolyline
 90
     4
 70
     1
 43
0.200000
 10
83.975000
 20
191.525000
 10
90.875000
 20
191.525000
 10
90.875000
 20
185.675000
 10
83.975000
 20
185.675000
  0
LWPOLYLINE
  5
69c
100
AcDbEntity
  8
0
100
AcDbPolyline
 90
     4
 70
     1
 43
0.200000
 10
83.975000
 20
191.525000
 10
90.875000
 20
191.525000
 10
90.875000
 20
185.675000
 10
83.975000
 20
185.675000
  0
LINE
  5
6a7
100
AcDbEntity
  8
0
370
    20
100
AcDbLine
 10
87.425000
 20
185.675000
 11
87.425000
 21
191.525000
  0
LINE
  5
6aa
100
AcDbEntity
  8
0
370
    20
100
AcDbLine
 10
90.800000
 20
188.575000
 11
83.975000
 21
188.600000
  0
LINE
  5
6ad
100
AcDbEntity
  8
0
370
    20
100
AcDbLine
 10
90.800000
 20
189.950000
 11
83.975000
 21
189.975000
  0
LINE
  5
6b0
100
AcDbEntity
  8
0
370
    20
100
AcDbLine
 10
90.800000
 20
187.075000
 11
83.975000
 21
187.100000
  0
LINE
  5
6b3
100
AcDbEntity
  8
0
370
    20
100
AcDbLine
 10
85.850000
 20
185.675000
 11
85.850000
 21
191.525000
  0
LINE
  5
6b6
100
AcDbEntity
  8
0
370
    20
100
AcDbLine
 10
89.225000
 20
185.675000
 11
89.225000
 21
191.525000
  0
LWPOLYLINE
  5
6b9
100
AcDbEntity
  8
0
100
AcDbPolyline
 90
     4
 70
     1
 43
0.200000
 10
66.250000
 20
189.350000
 10
66.725000
 20
189.350000
 10
66.725000
 20
184.525000
 10
66.250000
 20
184.525000
  0
LWPOLYLINE
  5
6c4
100
AcDbEntity
  8
0
100
AcDbPolyline
 90
     4
 70
     1
 43
0.200000
 10
79.850000
 20
189.350000
 10
80.325000
 20
189.350000
 10
80.325000
 20
184.525000
 10
79.850000
 20
184.525000
  0
LWPOLYLINE
  5
6cf
100
AcDbEntity
  8
0
100
AcDbPolyline
 90
     4
 70
     1
 43
0.200000
 10
66.250000
 20
196.525000
 10
66.725000
 20
196.525000
 10
66.725000
 20
191.700000
 10
66.250000
 20
191.700000
  0
LWPOLYLINE
  5
6da
100
AcDbEntity
  8
0
100
AcDbPolyline
 90
     4
 70
     1
 43
0.200000
 10
79.850000
 20
196.525000
 10
80.325000
 20
196.525000
 10
80.325000
 20
191.700000
 10
79.850000
 20
191.700000
  0
LWPOLYLINE
  5
6e5
100
AcDbEntity
  8
0
100
AcDbPolyline
 90
     4
 70
     1
 43
0.200000
 10
66.250000
 20
204.175000
 10
66.725000
 20
204.175000
 10
66.725000
 20
199.350000
 10
66.250000
 20
199.350000
  0
LWPOLYLINE
  5
6f0
100
AcDbEntity
  8
0
100
AcDbPolyline
 90
     4
 70
     1
 43
0.200000
 10
79.850000
 20
204.175000
 10
80.325000
 20
204.175000
 10
80.325000
 20
199.350000
 10
79.850000
 20
199.350000
  0
HATCH
  5
6fb
330
F6
100
AcDbEntity
  8
0
100
AcDbHatch
 10
0.0
 20
0.0
 30
0.0
210
0.0
220
0.0
230
1.0
  2
SOLID
 70
     1
 71
     0
 91
     1
 92
     7
 72
     0
 73
     1
 93
     4
 10
67.750000
 20
188.650000
 10
79.225000
 20
188.650000
 10
79.225000
 20
185.375000
 10
67.750000
 20
185.375000
 97
     1
330
6fe
 75
     0
 76
     1
 47
0.651316
 98
     1
 10
0.0
 20
0.0
  0
LWPOLYLINE
  5
6fe
330
F6
100
AcDbEntity
  8
0
100
AcDbPolyline
 90
     4
 70
     1
 43
0.200000
 10
67.750000
 20
188.650000
 10
79.225000
 20
188.650000
 10
79.225000
 20
185.375000
 10
67.750000
 20
185.375000
  0
LWPOLYLINE
  5
709
100
AcDbEntity
  8
0
100
AcDbPolyline
 90
     4
 70
     1
 43
0.200000
 10
67.750000
 20
188.650000
 10
79.225000
 20
188.650000
 10
79.225000
 20
185.375000
 10
67.750000
 20
185.375000
  0
CIRCLE
  5
714
100
AcDbEntity
  8
0
370
    20
100
AcDbCircle
 10
67.275000
 20
185.600000
 40
0.350000
  0
LWPOLYLINE
  5
717
100
AcDbEntity
  8
0
100
AcDbPolyline
 90
     4
 70
     1
 43
0.200000
 10
67.975000
 20
196.225000
 10
78.600000
 20
196.225000
 10
78.600000
 20
191.550000
 10
67.975000
 20
191.550000
  0
HATCH
  5
722
330
F6
100
AcDbEntity
  8
0
100
AcDbHatch
 10
0.0
 20
0.0
 30
0.0
210
0.0
220
0.0
230
1.0
  2
SOLID
 70
     1
 71
     0
 91
     1
 92
     7
 72
     0
 73
     1
 93
     4
 10
71.425000
 20
192.875000
 10
75.550000
 20
192.875000
 10
75.550000
 20
192.100000
 10
71.425000
 20
192.100000
 97
     1
330
725
 75
     0
 76
     1
 47
0.651316
 98
     1
 10
0.0
 20
0.0
  0
LWPOLYLINE
  5
725
330
F6
100
AcDbEntity
  8
0
100
AcDbPolyline
 90
     4
 70
     1
 43
0.200000
 10
71.425000
 20
192.875000
 10
75.550000
 20
192.875000
 10
75.550000
 20
192.100000
 10
71.425000
 20
192.100000
  0
LWPOLYLINE
  5
730
100
AcDbEntity
  8
0
100
AcDbPolyline
 90
     4
 70
     1
 43
0.200000
 10
71.425000
 20
192.875000
 10
75.550000
 20
192.875000
 10
75.550000
 20
192.100000
 10
71.425000
 20
192.100000
  0
LINE
  5
73b
100
AcDbEntity
  8
0
370
    20
100
AcDbLine
 10
67.975000
 20
192.250000
 11
71.350000
 21
192.250000
  0
LINE
  5
73e
100
AcDbEntity
  8
0
370
    20
100
AcDbLine
 10
75.650000
 20
192.250000
 11
78.600000
 21
192.250000
  0
LINE
  5
741
100
AcDbEntity
  8
0
370
    20
100
AcDbLine
 10
69.625000
 20
196.225000
 11
69.625000
 21
191.475000
  0
LINE
  5
744
100
AcDbEntity
  8
0
370
    20
100
AcDbLine
 10
77.050000
 20
196.225000
 11
77.050000
 21
191.475000
  0
HATCH
  5
747
330
F6
100
AcDbEntity
  8
0
100
AcDbHatch
 10
0.0
 20
0.0
 30
0.0
210
0.0
220
0.0
230
1.0
  2
SOLID
 70
     1
 71
     0
 91
     1
 92
     7
 72
     0
 73
     1
 93
     4
 10
84.150000
 20
202.800000
 10
90.800000
 20
202.800000
 10
90.800000
 20
196.150000
 10
84.150000
 20
196.150000
 97
     1
330
74a
 75
     0
 76
     1
 47
0.651316
 98
     1
 10
0.0
 20
0.0
  0
LWPOLYLINE
  5
74a
330
F6
100
AcDbEntity
  8
0
100
AcDbPolyline
 90
     4
 70
     1
 43
0.200000
 10
84.150000
 20
202.800000
 10
90.800000
 20
202.800000
 10
90.800000
 20
196.150000
 10
84.150000
 20
196.150000
  0
HATCH
  5
755
330
F6
100
AcDbEntity
  8
0
100
AcDbHatch
 10
0.0
 20
0.0
 30
0.0
210
0.0
220
0.0
230
1.0
  2
SOLID
 70
     1
 71
     0
 91
     1
 92
     7
 72
     0
 73
     1
 93
     4
 10
84.150000
 20
202.800000
 10
90.800000
 20
202.800000
 10
90.800000
 20
196.150000
 10
84.150000
 20
196.150000
 97
     1
330
758
 75
     0
 76
     1
 47
0.651316
 98
     1
 10
0.0
 20
0.0
  0
LWPOLYLINE
  5
758
330
F6
100
AcDbEntity
  8
0
100
AcDbPolyline
 90
     4
 70
     1
 43
0.200000
 10
84.150000
 20
202.800000
 10
90.800000
 20
202.800000
 10
90.800000
 20
196.150000
 10
84.150000
 20
196.150000
  0
LWPOLYLINE
  5
763
100
AcDbEntity
  8
0
100
AcDbPolyline
 90
     4
 70
     1
 43
0.200000
 10
84.150000
 20
202.800000
 10
90.800000
 20
202.800000
 10
90.800000
 20
196.150000
 10
84.150000
 20
196.150000
  0
LWPOLYLINE
  5
76e
100
AcDbEntity
  8
0
100
AcDbPolyline
 90
     4
 70
     1
 43
0.200000
 10
68.525000
 20
199.675000
 10
72.050000
 20
199.675000
 10
72.050000
 20
199.050000
 10
68.525000
 20
199.050000
  0
LWPOLYLINE
  5
779
100
AcDbEntity
  8
0
100
AcDbPolyline
 90
     4
 70
     1
 43
0.200000
 10
73.225000
 20
199.675000
 10
75.800000
 20
199.675000
 10
75.800000
 20
198.975000
 10
73.225000
 20
198.975000
  0
LWPOLYLINE
  5
784
100
AcDbEntity
  8
0
100
AcDbPolyline
 90
     4
 70
     1
 43
0.200000
 10
77.525000
 20
199.675000
 10
78.225000
 20
199.675000
 10
78.225000
 20
198.975000
 10
77.525000
 20
198.975000
  0
CIRCLE
  5
78f
100
AcDbEntity
  8
0
370
    20
100
AcDbCircle
 10
68.850000
 20
203.275000
 40
0.550000
  0
CIRCLE
  5
792
100
AcDbEntity
  8
0
370
    20
100
AcDbCircle
 10
70.875000
 20
203.275000
 40
0.550000
  0
CIRCLE
  5
795
100
AcDbEntity
  8
0
370
    20
100
AcDbCircle
 10
74.150000
 20
203.275000
 40
0.550000
  0
CIRCLE
  5
798
100
AcDbEntity
  8
0
370
    20
100
AcDbCircle
 10
75.950000
 20
203.275000
 40
0.550000
  0
CIRCLE
  5
79b
100
AcDbEntity
  8
0
370
    20
100
AcDbCircle
 10
77.750000
 20
203.275000
 40
0.550000
  0
HATCH
  5
79e
330
F6
100
AcDbEntity
  8
0
100
AcDbHatch
 10
0.0
 20
0.0
 30
0.0
210
0.0
220
0.0
230
1.0
  2
SOLID
 70
     1
 71
     0
 91
     1
 92
     7
 72
     0
 73
     1
 93
    26
 10
69.100000
 20
201.700000
 10
69.075000
 20
201.650000
 10
69.075000
 20
201.600000
 10
69.050000
 20
201.550000
 10
69.000000
 20
201.525000
 10
68.975000
 20
201.475000
 10
68.925000
 20
201.450000
 10
68.875000
 20
201.450000
 10
68.825000
 20
201.425000
 10
68.750000
 20
201.450000
 10
68.700000
 20
201.450000
 10
68.650000
 20
201.475000
 10
68.625000
 20
201.525000
 10
68.575000
 20
201.550000
 10
68.550000
 20
201.600000
 10
68.550000
 20
201.825000
 10
68.575000
 20
201.875000
 10
68.625000
 20
201.900000
 10
68.650000
 20
201.950000
 10
68.700000
 20
201.975000
 10
68.925000
 20
201.975000
 10
68.975000
 20
201.950000
 10
69.000000
 20
201.900000
 10
69.050000
 20
201.875000
 10
69.075000
 20
201.825000
 10
69.075000
 20
201.775000
 97
     1
330
7a1
 75
     0
 76
     1
 47
0.651316
 98
     1
 10
0.0
 20
0.0
  0
LWPOLYLINE
  5
7a1
330
F6
100
AcDbEntity
  8
0
100
AcDbPolyline
 90
    27
 70
     0
 43
0.200000
 10
69.100000
 20
201.700000
 10
69.075000
 20
201.650000
 10
69.075000
 20
201.600000
 10
69.050000
 20
201.550000
 10
69.000000
 20
201.525000
 10
68.975000
 20
201.475000
 10
68.925000
 20
201.450000
 10
68.875000
 20
201.450000
 10
68.825000
 20
201.425000
 10
68.750000
 20
201.450000
 10
68.700000
 20
201.450000
 10
68.650000
 20
201.475000
 10
68.625000
 20
201.525000
 10
68.575000
 20
201.550000
 10
68.550000
 20
201.600000
 10
68.550000
 20
201.825000
 10
68.575000
 20
201.875000
 10
68.625000
 20
201.900000
 10
68.650000
 20
201.950000
 10
68.700000
 20
201.975000
 10
68.925000
 20
201.975000
 10
68.975000
 20
201.950000
 10
69.000000
 20
201.900000
 10
69.050000
 20
201.875000
 10
69.075000
 20
201.825000
 10
69.075000
 20
201.775000
 10
69.100000
 20
201.700000
  0
CIRCLE
  5
7da
100
AcDbEntity
  8
0
370
    20
100
AcDbCircle
 10
68.825000
 20
201.700000
 40
0.275000
  0
HATCH
  5
7dd
330
F6
100
AcDbEntity
  8
0
100
AcDbHatch
 10
0.0
 20
0.0
 30
0.0
210
0.0
220
0.0
230
1.0
  2
SOLID
 70
     1
 71
     0
 91
     1
 92
     7
 72
     0
 73
     1
 93
    26
 10
71.100000
 20
201.700000
 10
71.075000
 20
201.650000
 10
71.075000
 20
201.600000
 10
71.050000
 20
201.550000
 10
71.000000
 20
201.525000
 10
70.975000
 20
201.475000
 10
70.925000
 20
201.450000
 10
70.875000
 20
201.450000
 10
70.825000
 20
201.425000
 10
70.750000
 20
201.450000
 10
70.700000
 20
201.450000
 10
70.650000
 20
201.475000
 10
70.625000
 20
201.525000
 10
70.575000
 20
201.550000
 10
70.550000
 20
201.600000
 10
70.550000
 20
201.825000
 10
70.575000
 20
201.875000
 10
70.625000
 20
201.900000
 10
70.650000
 20
201.950000
 10
70.700000
 20
201.975000
 10
70.925000
 20
201.975000
 10
70.975000
 20
201.950000
 10
71.000000
 20
201.900000
 10
71.050000
 20
201.875000
 10
71.075000
 20
201.825000
 10
71.075000
 20
201.775000
 97
     1
330
7e0
 75
     0
 76
     1
 47
0.651316
 98
     1
 10
0.0
 20
0.0
  0
LWPOLYLINE
  5
7e0
330
F6
100
AcDbEntity
  8
0
100
AcDbPolyline
 90
    27
 70
     0
 43
0.200000
 10
71.100000
 20
201.700000
 10
71.075000
 20
201.650000
 10
71.075000
 20
201.600000
 10
71.050000
 20
201.550000
 10
71.000000
 20
201.525000
 10
70.975000
 20
201.475000
 10
70.925000
 20
201.450000
 10
70.875000
 20
201.450000
 10
70.825000
 20
201.425000
 10
70.750000
 20
201.450000
 10
70.700000
 20
201.450000
 10
70.650000
 20
201.475000
 10
70.625000
 20
201.525000
 10
70.575000
 20
201.550000
 10
70.550000
 20
201.600000
 10
70.550000
 20
201.825000
 10
70.575000
 20
201.875000
 10
70.625000
 20
201.900000
 10
70.650000
 20
201.950000
 10
70.700000
 20
201.975000
 10
70.925000
 20
201.975000
 10
70.975000
 20
201.950000
 10
71.000000
 20
201.900000
 10
71.050000
 20
201.875000
 10
71.075000
 20
201.825000
 10
71.075000
 20
201.775000
 10
71.100000
 20
201.700000
  0
CIRCLE
  5
819
100
AcDbEntity
  8
0
370
    20
100
AcDbCircle
 10
70.825000
 20
201.700000
 40
0.275000
  0
HATCH
  5
81c
330
F6
100
AcDbEntity
  8
0
100
AcDbHatch
 10
0.0
 20
0.0
 30
0.0
210
0.0
220
0.0
230
1.0
  2
SOLID
 70
     1
 71
     0
 91
     1
 92
     7
 72
     0
 73
     1
 93
    26
 10
74.475000
 20
201.700000
 10
74.450000
 20
201.650000
 10
74.450000
 20
201.600000
 10
74.425000
 20
201.550000
 10
74.375000
 20
201.525000
 10
74.350000
 20
201.475000
 10
74.300000
 20
201.450000
 10
74.250000
 20
201.450000
 10
74.200000
 20
201.425000
 10
74.125000
 20
201.450000
 10
74.075000
 20
201.450000
 10
74.025000
 20
201.475000
 10
74.000000
 20
201.525000
 10
73.950000
 20
201.550000
 10
73.925000
 20
201.600000
 10
73.925000
 20
201.825000
 10
73.950000
 20
201.875000
 10
74.000000
 20
201.900000
 10
74.025000
 20
201.950000
 10
74.075000
 20
201.975000
 10
74.300000
 20
201.975000
 10
74.350000
 20
201.950000
 10
74.375000
 20
201.900000
 10
74.425000
 20
201.875000
 10
74.450000
 20
201.825000
 10
74.450000
 20
201.775000
 97
     1
330
81f
 75
     0
 76
     1
 47
0.651316
 98
     1
 10
0.0
 20
0.0
  0
LWPOLYLINE
  5
81f
330
F6
100
AcDbEntity
  8
0
100
AcDbPolyline
 90
    27
 70
     0
 43
0.200000
 10
74.475000
 20
201.700000
 10
74.450000
 20
201.650000
 10
74.450000
 20
201.600000
 10
74.425000
 20
201.550000
 10
74.375000
 20
201.525000
 10
74.350000
 20
201.475000
 10
74.300000
 20
201.450000
 10
74.250000
 20
201.450000
 10
74.200000
 20
201.425000
 10
74.125000
 20
201.450000
 10
74.075000
 20
201.450000
 10
74.025000
 20
201.475000
 10
74.000000
 20
201.525000
 10
73.950000
 20
201.550000
 10
73.925000
 20
201.600000
 10
73.925000
 20
201.825000
 10
73.950000
 20
201.875000
 10
74.000000
 20
201.900000
 10
74.025000
 20
201.950000
 10
74.075000
 20
201.975000
 10
74.300000
 20
201.975000
 10
74.350000
 20
201.950000
 10
74.375000
 20
201.900000
 10
74.425000
 20
201.875000
 10
74.450000
 20
201.825000
 10
74.450000
 20
201.775000
 10
74.475000
 20
201.700000
  0
CIRCLE
  5
858
100
AcDbEntity
  8
0
370
    20
100
AcDbCircle
 10
74.200000
 20
201.700000
 40
0.275000
  0
HATCH
  5
85b
330
F6
100
AcDbEntity
  8
0
100
AcDbHatch
 10
0.0
 20
0.0
 30
0.0
210
0.0
220
0.0
230
1.0
  2
SOLID
 70
     1
 71
     0
 91
     1
 92
     7
 72
     0
 73
     1
 93
    26
 10
76.225000
 20
201.700000
 10
76.200000
 20
201.650000
 10
76.200000
 20
201.600000
 10
76.175000
 20
201.550000
 10
76.125000
 20
201.525000
 10
76.100000
 20
201.475000
 10
76.050000
 20
201.450000
 10
76.000000
 20
201.450000
 10
75.950000
 20
201.425000
 10
75.875000
 20
201.450000
 10
75.825000
 20
201.450000
 10
75.775000
 20
201.475000
 10
75.750000
 20
201.525000
 10
75.700000
 20
201.550000
 10
75.675000
 20
201.600000
 10
75.675000
 20
201.825000
 10
75.700000
 20
201.875000
 10
75.750000
 20
201.900000
 10
75.775000
 20
201.950000
 10
75.825000
 20
201.975000
 10
76.050000
 20
201.975000
 10
76.100000
 20
201.950000
 10
76.125000
 20
201.900000
 10
76.175000
 20
201.875000
 10
76.200000
 20
201.825000
 10
76.200000
 20
201.775000
 97
     1
330
85e
 75
     0
 76
     1
 47
0.651316
 98
     1
 10
0.0
 20
0.0
  0
LWPOLYLINE
  5
85e
330
F6
100
AcDbEntity
  8
0
100
AcDbPolyline
 90
    27
 70
     0
 43
0.200000
 10
76.225000
 20
201.700000
 10
76.200000
 20
201.650000
 10
76.200000
 20
201.600000
 10
76.175000
 20
201.550000
 10
76.125000
 20
201.525000
 10
76.100000
 20
201.475000
 10
76.050000
 20
201.450000
 10
76.000000
 20
201.450000
 10
75.950000
 20
201.425000
 10
75.875000
 20
201.450000
 10
75.825000
 20
201.450000
 10
75.775000
 20
201.475000
 10
75.750000
 20
201.525000
 10
75.700000
 20
201.550000
 10
75.675000
 20
201.600000
 10
75.675000
 20
201.825000
 10
75.700000
 20
201.875000
 10
75.750000
 20
201.900000
 10
75.775000
 20
201.950000
 10
75.825000
 20
201.975000
 10
76.050000
 20
201.975000
 10
76.100000
 20
201.950000
 10
76.125000
 20
201.900000
 10
76.175000
 20
201.875000
 10
76.200000
 20
201.825000
 10
76.200000
 20
201.775000
 10
76.225000
 20
201.700000
  0
CIRCLE
  5
897
100
AcDbEntity
  8
0
370
    20
100
AcDbCircle
 10
75.950000
 20
201.700000
 40
0.275000
  0
HATCH
  5
89a
330
F6
100
AcDbEntity
  8
0
100
AcDbHatch
 10
0.0
 20
0.0
 30
0.0
210
0.0
220
0.0
230
1.0
  2
SOLID
 70
     1
 71
     0
 91
     1
 92
     7
 72
     0
 73
     1
 93
    26
 10
78.025000
 20
201.700000
 10
78.000000
 20
201.650000
 10
78.000000
 20
201.600000
 10
77.975000
 20
201.550000
 10
77.925000
 20
201.525000
 10
77.900000
 20
201.475000
 10
77.850000
 20
201.450000
 10
77.800000
 20
201.450000
 10
77.750000
 20
201.425000
 10
77.675000
 20
201.450000
 10
77.625000
 20
201.450000
 10
77.575000
 20
201.475000
 10
77.550000
 20
201.525000
 10
77.500000
 20
201.550000
 10
77.475000
 20
201.600000
 10
77.475000
 20
201.825000
 10
77.500000
 20
201.875000
 10
77.550000
 20
201.900000
 10
77.575000
 20
201.950000
 10
77.625000
 20
201.975000
 10
77.850000
 20
201.975000
 10
77.900000
 20
201.950000
 10
77.925000
 20
201.900000
 10
77.975000
 20
201.875000
 10
78.000000
 20
201.825000
 10
78.000000
 20
201.775000
 97
     1
330
89d
 75
     0
 76
     1
 47
0.651316
 98
     1
 10
0.0
 20
0.0
  0
LWPOLYLINE
  5
89d
330
F6
100
AcDbEntity
  8
0
100
AcDbPolyline
 90
    27
 70
     0
 43
0.200000
 10
78.025000
 20
201.700000
 10
78.000000
 20
201.650000
 10
78.000000
 20
201.600000
 10
77.975000
 20
201.550000
 10
77.925000
 20
201.525000
 10
77.900000
 20
201.475000
 10
77.850000
 20
201.450000
 10
77.800000
 20
201.450000
 10
77.750000
 20
201.425000
 10
77.675000
 20
201.450000
 10
77.625000
 20
201.450000
 10
77.575000
 20
201.475000
 10
77.550000
 20
201.525000
 10
77.500000
 20
201.550000
 10
77.475000
 20
201.600000
 10
77.475000
 20
201.825000
 10
77.500000
 20
201.875000
 10
77.550000
 20
201.900000
 10
77.575000
 20
201.950000
 10
77.625000
 20
201.975000
 10
77.850000
 20
201.975000
 10
77.900000
 20
201.950000
 10
77.925000
 20
201.900000
 10
77.975000
 20
201.875000
 10
78.000000
 20
201.825000
 10
78.000000
 20
201.775000
 10
78.025000
 20
201.700000
  0
CIRCLE
  5
8d6
100
AcDbEntity
  8
0
370
    20
100
AcDbCircle
 10
77.750000
 20
201.700000
 40
0.275000
  0
HATCH
  5
8d9
330
F6
100
AcDbEntity
  8
0
100
AcDbHatch
 10
0.0
 20
0.0
 30
0.0
210
0.0
220
0.0
230
1.0
  2
SOLID
 70
     1
 71
     0
 91
     1
 92
     7
 72
     0
 73
     1
 93
    26
 10
72.625000
 20
201.700000
 10
72.600000
 20
201.650000
 10
72.600000
 20
201.600000
 10
72.575000
 20
201.550000
 10
72.525000
 20
201.525000
 10
72.500000
 20
201.475000
 10
72.450000
 20
201.450000
 10
72.400000
 20
201.450000
 10
72.350000
 20
201.425000
 10
72.275000
 20
201.450000
 10
72.225000
 20
201.450000
 10
72.175000
 20
201.475000
 10
72.150000
 20
201.525000
 10
72.100000
 20
201.550000
 10
72.075000
 20
201.600000
 10
72.075000
 20
201.825000
 10
72.100000
 20
201.875000
 10
72.150000
 20
201.900000
 10
72.175000
 20
201.950000
 10
72.225000
 20
201.975000
 10
72.450000
 20
201.975000
 10
72.500000
 20
201.950000
 10
72.525000
 20
201.900000
 10
72.575000
 20
201.875000
 10
72.600000
 20
201.825000
 10
72.600000
 20
201.775000
 97
     1
330
8dc
 75
     0
 76
     1
 47
0.651316
 98
     1
 10
0.0
 20
0.0
  0
LWPOLYLINE
  5
8dc
330
F6
100
AcDbEntity
  8
0
100
AcDbPolyline
 90
    27
 70
     0
 43
0.200000
 10
72.625000
 20
201.700000
 10
72.600000
 20
201.650000
 10
72.600000
 20
201.600000
 10
72.575000
 20
201.550000
 10
72.525000
 20
201.525000
 10
72.500000
 20
201.475000
 10
72.450000
 20
201.450000
 10
72.400000
 20
201.450000
 10
72.350000
 20
201.425000
 10
72.275000
 20
201.450000
 10
72.225000
 20
201.450000
 10
72.175000
 20
201.475000
 10
72.150000
 20
201.525000
 10
72.100000
 20
201.550000
 10
72.075000
 20
201.600000
 10
72.075000
 20
201.825000
 10
72.100000
 20
201.875000
 10
72.150000
 20
201.900000
 10
72.175000
 20
201.950000
 10
72.225000
 20
201.975000
 10
72.450000
 20
201.975000
 10
72.500000
 20
201.950000
 10
72.525000
 20
201.900000
 10
72.575000
 20
201.875000
 10
72.600000
 20
201.825000
 10
72.600000
 20
201.775000
 10
72.625000
 20
201.700000
  0
CIRCLE
  5
915
100
AcDbEntity
  8
0
370
    20
100
AcDbCircle
 10
72.350000
 20
201.700000
 40
0.275000
  0
HATCH
  5
918
330
F6
100
AcDbEntity
  8
0
100
AcDbHatch
 10
0.0
 20
0.0
 30
0.0
210
0.0
220
0.0
230
1.0
  2
SOLID
 70
     1
 71
     0
 91
     1
 92
     7
 72
     0
 73
     1
 93
    26
 10
73.450000
 20
201.700000
 10
73.425000
 20
201.650000
 10
73.425000
 20
201.600000
 10
73.400000
 20
201.550000
 10
73.350000
 20
201.525000
 10
73.325000
 20
201.475000
 10
73.275000
 20
201.450000
 10
73.225000
 20
201.450000
 10
73.175000
 20
201.425000
 10
73.100000
 20
201.450000
 10
73.050000
 20
201.450000
 10
73.000000
 20
201.475000
 10
72.975000
 20
201.525000
 10
72.925000
 20
201.550000
 10
72.900000
 20
201.600000
 10
72.900000
 20
201.825000
 10
72.925000
 20
201.875000
 10
72.975000
 20
201.900000
 10
73.000000
 20
201.950000
 10
73.050000
 20
201.975000
 10
73.275000
 20
201.975000
 10
73.325000
 20
201.950000
 10
73.350000
 20
201.900000
 10
73.400000
 20
201.875000
 10
73.425000
 20
201.825000
 10
73.425000
 20
201.775000
 97
     1
330
91b
 75
     0
 76
     1
 47
0.651316
 98
     1
 10
0.0
 20
0.0
  0
LWPOLYLINE
  5
91b
330
F6
100
AcDbEntity
  8
0
100
AcDbPolyline
 90
    27
 70
     0
 43
0.200000
 10
73.450000
 20
201.700000
 10
73.425000
 20
201.650000
 10
73.425000
 20
201.600000
 10
73.400000
 20
201.550000
 10
73.350000
 20
201.525000
 10
73.325000
 20
201.475000
 10
73.275000
 20
201.450000
 10
73.225000
 20
201.450000
 10
73.175000
 20
201.425000
 10
73.100000
 20
201.450000
 10
73.050000
 20
201.450000
 10
73.000000
 20
201.475000
 10
72.975000
 20
201.525000
 10
72.925000
 20
201.550000
 10
72.900000
 20
201.600000
 10
72.900000
 20
201.825000
 10
72.925000
 20
201.875000
 10
72.975000
 20
201.900000
 10
73.000000
 20
201.950000
 10
73.050000
 20
201.975000
 10
73.275000
 20
201.975000
 10
73.325000
 20
201.950000
 10
73.350000
 20
201.900000
 10
73.400000
 20
201.875000
 10
73.425000
 20
201.825000
 10
73.425000
 20
201.775000
 10
73.450000
 20
201.700000
  0
CIRCLE
  5
954
100
AcDbEntity
  8
0
370
    20
100
AcDbCircle
 10
73.175000
 20
201.700000
 40
0.275000
  0
HATCH
  5
957
330
F6
100
AcDbEntity
  8
0
100
AcDbHatch
 10
0.0
 20
0.0
 30
0.0
210
0.0
220
0.0
230
1.0
  2
SOLID
 70
     1
 71
     0
 91
     1
 92
     7
 72
     0
 73
     1
 93
    26
 10
77.000000
 20
199.350000
 10
76.975000
 20
199.300000
 10
76.975000
 20
199.250000
 10
76.950000
 20
199.200000
 10
76.900000
 20
199.175000
 10
76.875000
 20
199.125000
 10
76.825000
 20
199.100000
 10
76.775000
 20
199.100000
 10
76.725000
 20
199.075000
 10
76.650000
 20
199.100000
 10
76.600000
 20
199.100000
 10
76.550000
 20
199.125000
 10
76.525000
 20
199.175000
 10
76.475000
 20
199.200000
 10
76.450000
 20
199.250000
 10
76.450000
 20
199.475000
 10
76.475000
 20
199.525000
 10
76.525000
 20
199.550000
 10
76.550000
 20
199.600000
 10
76.600000
 20
199.625000
 10
76.825000
 20
199.625000
 10
76.875000
 20
199.600000
 10
76.900000
 20
199.550000
 10
76.950000
 20
199.525000
 10
76.975000
 20
199.475000
 10
76.975000
 20
199.425000
 97
     1
330
95a
 75
     0
 76
     1
 47
0.651316
 98
     1
 10
0.0
 20
0.0
  0
LWPOLYLINE
  5
95a
330
F6
100
AcDbEntity
  8
0
100
AcDbPolyline
 90
    27
 70
     0
 43
0.200000
 10
77.000000
 20
199.350000
 10
76.975000
 20
199.300000
 10
76.975000
 20
199.250000
 10
76.950000
 20
199.200000
 10
76.900000
 20
199.175000
 10
76.875000
 20
199.125000
 10
76.825000
 20
199.100000
 10
76.775000
 20
199.100000
 10
76.725000
 20
199.075000
 10
76.650000
 20
199.100000
 10
76.600000
 20
199.100000
 10
76.550000
 20
199.125000
 10
76.525000
 20
199.175000
 10
76.475000
 20
199.200000
 10
76.450000
 20
199.250000
 10
76.450000
 20
199.475000
 10
76.475000
 20
199.525000
 10
76.525000
 20
199.550000
 10
76.550000
 20
199.600000
 10
76.600000
 20
199.625000
 10
76.825000
 20
199.625000
 10
76.875000
 20
199.600000
 10
76.900000
 20
199.550000
 10
76.950000
 20
199.525000
 10
76.975000
 20
199.475000
 10
76.975000
 20
199.425000
 10
77.000000
 20
199.350000
  0
CIRCLE
  5
993
100
AcDbEntity
  8
0
370
    20
100
AcDbCircle
 10
76.725000
 20
199.350000
 40
0.275000
  0
HATCH
  5
996
330
F6
100
AcDbEntity
  8
0
100
AcDbHatch
 10
0.0
 20
0.0
 30
0.0
210
0.0
220
0.0
230
1.0
  2
SOLID
 70
     1
 71
     0
 91
     1
 92
     7
 72
     0
 73
     1
 93
    31
 10
67.500000
 20
206.100000
 10
67.500000
 20
206.050000
 10
67.475000
 20
206.000000
 10
67.425000
 20
205.950000
 10
67.350000
 20
205.925000
 10
67.300000
 20
205.900000
 10
67.200000
 20
205.875000
 10
66.950000
 20
205.875000
 10
66.725000
 20
205.950000
 10
66.675000
 20
205.975000
 10
66.625000
 20
206.025000
 10
66.625000
 20
206.100000
 10
66.625000
 20
206.150000
 10
66.700000
 20
206.350000
 10
66.650000
 20
206.300000
 10
66.625000
 20
206.250000
 10
66.625000
 20
206.150000
 10
66.675000
 20
206.050000
 10
66.725000
 20
206.025000
 10
66.800000
 20
205.975000
 10
66.875000
 20
205.950000
 10
67.225000
 20
205.950000
 10
67.375000
 20
206.000000
 10
67.425000
 20
206.050000
 10
67.475000
 20
206.075000
 10
67.475000
 20
206.125000
 10
67.500000
 20
206.125000
 10
67.500000
 20
206.225000
 10
67.450000
 20
206.325000
 10
67.400000
 20
206.350000
 10
67.475000
 20
206.125000
 97
     1
330
999
 75
     0
 76
     1
 47
0.651316
 98
     1
 10
0.0
 20
0.0
  0
LWPOLYLINE
  5
999
330
F6
100
AcDbEntity
  8
0
100
AcDbPolyline
 90
    32
 70
     0
 43
0.200000
 10
67.500000
 20
206.100000
 10
67.500000
 20
206.050000
 10
67.475000
 20
206.000000
 10
67.425000
 20
205.950000
 10
67.350000
 20
205.925000
 10
67.300000
 20
205.900000
 10
67.200000
 20
205.875000
 10
66.950000
 20
205.875000
 10
66.725000
 20
205.950000
 10
66.675000
 20
205.975000
 10
66.625000
 20
206.025000
 10
66.625000
 20
206.100000
 10
66.625000
 20
206.150000
 10
66.700000
 20
206.350000
 10
66.650000
 20
206.300000
 10
66.625000
 20
206.250000
 10
66.625000
 20
206.150000
 10
66.675000
 20
206.050000
 10
66.725000
 20
206.025000
 10
66.800000
 20
205.975000
 10
66.875000
 20
205.950000
 10
67.225000
 20
205.950000
 10
67.375000
 20
206.000000
 10
67.425000
 20
206.050000
 10
67.475000
 20
206.075000
 10
67.475000
 20
206.125000
 10
67.500000
 20
206.125000
 10
67.500000
 20
206.225000
 10
67.450000
 20
206.325000
 10
67.400000
 20
206.350000
 10
67.475000
 20
206.125000
 10
67.500000
 20
206.100000
  0
ELLIPSE
  5
9dc
100
AcDbEntity
  8
0
370
    20
100
AcDbEllipse
 10
67.075000
 20
206.100000
 30
0.000000
 11
0.450000
 21
-0.000000000000000
 31
0.000000
210
0.000000
220
0.000000
230
1.000000
 40
0.555556
 41
3.215224
 42
6.209554
  0
ELLIPSE
  5
9df
100
AcDbEntity
  8
0
370
    20
100
AcDbEllipse
 10
67.075000
 20
206.175000
 30
0.000000
 11
0.450000
 21
-0.000000000000000
 31
0.000000
210
0.000000
220
0.000000
230
1.000000
 40
0.555556
 41
2.524932
 42
0.693359
  0
ELLIPSE
  5
9e2
100
AcDbEntity
  8
0
370
    20
100
AcDbEllipse
 10
67.075000
 20
206.375000
 30
0.000000
 11
0.325000
 21
-0.0000000000000000
 31
0.000000
210
0.000000
220
0.000000
230
1.000000
 40
0.769231
 41
0.000000
 42
6.283185
  0
ELLIPSE
  5
9e5
100
AcDbEntity
  8
0
370
    20
100
AcDbEllipse
 10
68.700000
 20
206.125000
 30
0.000000
 11
0.600000
 21
-0.000000000000000
 31
0.000000
210
0.000000
220
0.000000
230
1.000000
 40
0.458333
 41
3.230564
 42
6.194214
  0
ELLIPSE
  5
9e8
100
AcDbEntity
  8
0
370
    20
100
AcDbEllipse
 10
68.700000
 20
206.225000
 30
0.000000
 11
0.600000
 21
-0.000000000000000
 31
0.000000
210
0.000000
220
0.000000
230
1.000000
 40
0.458333
 41
2.432894
 42
0.788466
  0
ELLIPSE
  5
9eb
100
AcDbEntity
  8
0
370
    20
100
AcDbEllipse
 10
68.700000
 20
206.475000
 30
0.000000
 11
0.450000
 21
-0.000000000000000
 31
0.000000
210
0.000000
220
0.000000
230
1.000000
 40
0.555556
 41
0.000000
 42
6.283185
  0
ELLIPSE
  5
9ee
100
AcDbEntity
  8
0
370
    20
100
AcDbEllipse
 10
71.100000
 20
206.125000
 30
0.000000
 11
0.600000
 21
-0.000000000000000
 31
0.000000
210
0.000000
220
0.000000
230
1.000000
 40
0.458333
 41
3.230564
 42
6.194214
  0
ELLIPSE
  5
9f1
100
AcDbEntity
  8
0
370
    20
100
AcDbEllipse
 10
71.100000
 20
206.225000
 30
0.000000
 11
0.600000
 21
-0.000000000000000
 31
0.000000
210
0.000000
220
0.000000
230
1.000000
 40
0.458333
 41
2.432894
 42
0.788466
  0
ELLIPSE
  5
9f4
100
AcDbEntity
  8
0
370
    20
100
AcDbEllipse
 10
71.100000
 20
206.475000
 30
0.000000
 11
0.450000
 21
-0.000000000000000
 31
0.000000
210
0.000000
220
0.000000
230
1.000000
 40
0.555556
 41
0.000000
 42
6.283185
  0
ELLIPSE
  5
9f7
100
AcDbEntity
  8
0
370
    20
100
AcDbEllipse
 10
73.550000
 20
206.125000
 30
0.000000
 11
0.600000
 21
-0.000000000000000
 31
0.000000
210
0.000000
220
0.000000
230
1.000000
 40
0.458333
 41
3.230564
 42
6.194214
  0
ELLIPSE
  5
9fa
100
AcDbEntity
  8
0
370
    20
100
AcDbEllipse
 10
73.550000
 20
206.225000
 30
0.000000
 11
0.600000
 21
-0.000000000000000
 31
0.000000
210
0.000000
220
0.000000
230
1.000000
 40
0.458333
 41
2.432894
 42
0.788466
  0
ELLIPSE
  5
9fd
100
AcDbEntity
  8
0
370
    20
100
AcDbEllipse
 10
73.550000
 20
206.475000
 30
0.000000
 11
0.450000
 21
-0.000000000000000
 31
0.000000
210
0.000000
220
0.000000
230
1.000000
 40
0.555556
 41
0.000000
 42
6.283185
  0
ELLIPSE
  5
a00
100
AcDbEntity
  8
0
370
    20
100
AcDbEllipse
 10
75.975000
 20
206.125000
 30
0.000000
 11
0.600000
 21
-0.000000000000000
 31
0.000000
210
0.000000
220
0.000000
230
1.000000
 40
0.458333
 41
3.230564
 42
6.194214
  0
ELLIPSE
  5
a03
100
AcDbEntity
  8
0
370
    20
100
AcDbEllipse
 10
75.975000
 20
206.225000
 30
0.000000
 11
0.600000
 21
-0.000000000000000
 31
0.000000
210
0.000000
220
0.000000
230
1.000000
 40
0.458333
 41
2.432894
 42
0.788466
  0
ELLIPSE
  5
a06
100
AcDbEntity
  8
0
370
    20
100
AcDbEllipse
 10
75.975000
 20
206.475000
 30
0.000000
 11
0.450000
 21
-0.000000000000000
 31
0.000000
210
0.000000
220
0.000000
230
1.000000
 40
0.555556
 41
0.000000
 42
6.283185
  0
ELLIPSE
  5
a09
100
AcDbEntity
  8
0
370
    20
100
AcDbEllipse
 10
88.475000
 20
206.125000
 30
0.000000
 11
1.775000
 21
-0.000000000000000
 31
0.000000
210
0.000000
220
0.000000
230
1.000000
 40
0.140845
 41
3.233632
 42
6.191146
  0
ELLIPSE
  5
a0c
100
AcDbEntity
  8
0
370
    20
100
AcDbEllipse
 10
88.475000
 20
206.225000
 30
0.000000
 11
1.775000
 21
-0.000000000000000
 31
0.000000
210
0.000000
220
0.000000
230
1.000000
 40
0.140845
 41
2.396078
 42
0.831418
  0
ELLIPSE
  5
a0f
100
AcDbEntity
  8
0
370
    20
100
AcDbEllipse
 10
88.475000
 20
206.475000
 30
0.000000
 11
1.600000
 21
-0.000000000000000
 31
0.000000
210
0.000000
220
0.000000
230
1.000000
 40
0.156250
 41
0.000000
 42
6.283185
  0
ELLIPSE
  5
a12
100
AcDbEntity
  8
0
370
    20
100
AcDbEllipse
 10
84.200000
 20
206.125000
 30
0.000000
 11
1.200000
 21
-0.000000000000000
 31
0.000000
210
0.000000
220
0.000000
230
1.000000
 40
0.229167
 41
3.230564
 42
6.194214
  0
ELLIPSE
  5
a15
100
AcDbEntity
  8
0
370
    20
100
AcDbEllipse
 10
84.200000
 20
206.225000
 30
0.000000
 11
1.200000
 21
-0.000000000000000
 31
0.000000
210
0.000000
220
0.000000
230
1.000000
 40
0.229167
 41
2.445165
 42
0.794602
  0
ELLIPSE
  5
a18
100
AcDbEntity
  8
0
370
    20
100
AcDbEllipse
 10
84.200000
 20
206.475000
 30
0.000000
 11
1.125000
 21
-0.000000000000000
 31
0.000000
210
0.000000
220
0.000000
230
1.000000
 40
0.222222
 41
0.000000
 42
6.283185
  0
ELLIPSE
  5
a1b
100
AcDbEntity
  8
0
370
    20
100
AcDbEllipse
 10
80.775000
 20
206.125000
 30
0.000000
 11
0.600000
 21
-0.000000000000000
 31
0.000000
210
0.000000
220
0.000000
230
1.000000
 40
0.458333
 41
3.230564
 42
6.194214
  0
ELLIPSE
  5
a1e
100
AcDbEntity
  8
0
370
    20
100
AcDbEllipse
 10
80.775000
 20
206.225000
 30
0.000000
 11
0.600000
 21
-0.000000000000000
 31
0.000000
210
0.000000
220
0.000000
230
1.000000
 40
0.458333
 41
2.432894
 42
0.788466
  0
ELLIPSE
  5
a21
100
AcDbEntity
  8
0
370
    20
100
AcDbEllipse
 10
80.775000
 20
206.475000
 30
0.000000
 11
0.450000
 21
-0.000000000000000
 31
0.000000
210
0.000000
220
0.000000
230
1.000000
 40
0.555556
 41
0.000000
 42
6.283185
  0
ELLIPSE
  5
a24
100
AcDbEntity
  8
0
370
    20
100
AcDbEllipse
 10
78.400000
 20
206.125000
 30
0.000000
 11
0.600000
 21
-0.000000000000000
 31
0.000000
210
0.000000
220
0.000000
230
1.000000
 40
0.458333
 41
3.230564
 42
6.194214
  0
ELLIPSE
  5
a27
100
AcDbEntity
  8
0
370
    20
100
AcDbEllipse
 10
78.400000
 20
206.225000
 30
0.000000
 11
0.600000
 21
-0.000000000000000
 31
0.000000
210
0.000000
220
0.000000
230
1.000000
 40
0.458333
 41
2.432894
 42
0.788466
  0
ELLIPSE
  5
a2a
100
AcDbEntity
  8
0
370
    20
100
AcDbEllipse
 10
78.400000
 20
206.475000
 30
0.000000
 11
0.450000
 21
-0.000000000000000
 31
0.000000
210
0.000000
220
0.000000
230
1.000000
 40
0.555556
 41
0.000000
 42
6.283185
  0
HATCH
  5
a2d
330
F6
100
AcDbEntity
  8
0
100
AcDbHatch
 10
0.0
 20
0.0
 30
0.0
210
0.0
220
0.0
230
1.0
  2
SOLID
 70
     1
 71
     0
 91
     1
 92
     7
 72
     0
 73
     1
 93
     4
 10
15.650000
 20
172.550000
 10
16.275000
 20
172.550000
 10
16.275000
 20
160.675000
 10
15.650000
 20
160.675000
 97
     1
330
a30
 75
     0
 76
     1
 47
0.651316
 98
     1
 10
0.0
 20
0.0
  0
LWPOLYLINE
  5
a30
330
F6
100
AcDbEntity
  8
0
100
AcDbPolyline
 90
     4
 70
     1
 43
0.200000
 10
15.650000
 20
172.550000
 10
16.275000
 20
172.550000
 10
16.275000
 20
160.675000
 10
15.650000
 20
160.675000
  0
LWPOLYLINE
  5
a3b
100
AcDbEntity
  8
0
100
AcDbPolyline
 90
     4
 70
     1
 43
0.200000
 10
15.650000
 20
172.550000
 10
16.275000
 20
172.550000
 10
16.275000
 20
160.675000
 10
15.650000
 20
160.675000
  0
HATCH
  5
a46
330
F6
100
AcDbEntity
  8
0
100
AcDbHatch
 10
0.0
 20
0.0
 30
0.0
210
0.0
220
0.0
230
1.0
  2
SOLID
 70
     1
 71
     0
 91
     1
 92
     7
 72
     0
 73
     1
 93
     4
 10
58.775000
 20
172.550000
 10
59.400000
 20
172.550000
 10
59.400000
 20
160.675000
 10
58.775000
 20
160.675000
 97
     1
330
a49
 75
     0
 76
     1
 47
0.651316
 98
     1
 10
0.0
 20
0.0
  0
LWPOLYLINE
  5
a49
330
F6
100
AcDbEntity
  8
0
100
AcDbPolyline
 90
     4
 70
     1
 43
0.200000
 10
58.775000
 20
172.550000
 10
59.400000
 20
172.550000
 10
59.400000
 20
160.675000
 10
58.775000
 20
160.675000
  0
LWPOLYLINE
  5
a54
100
AcDbEntity
  8
0
100
AcDbPolyline
 90
     4
 70
     1
 43
0.200000
 10
58.775000
 20
172.550000
 10
59.400000
 20
172.550000
 10
59.400000
 20
160.675000
 10
58.775000
 20
160.675000
  0
LINE
  5
a5f
100
AcDbEntity
  8
0
370
    40
100
AcDbLine
 10
15.950000
 20
172.250000
 11
15.950000
 21
185.175000
  0
LINE
  5
a62
100
AcDbEntity
  8
0
370
    40
100
AcDbLine
 10
31.350000
 20
189.750000
 11
20.525000
 21
189.750000
  0
LINE
  5
a65
100
AcDbEntity
  8
0
370
    40
100
AcDbLine
 10
31.275000
 20
189.750000
 11
45.125000
 21
189.750000
  0
LINE
  5
a68
100
AcDbEntity
  8
0
370
    40
100
AcDbLine
 10
49.700000
 20
194.325000
 11
49.700000
 21
215.175000
  0
LINE
  5
a6b
100
AcDbEntity
  8
0
370
    40
100
AcDbLine
 10
54.275000
 20
219.750000
 11
73.875000
 21
219.750000
  0
LWPOLYLINE
  5
a6e
100
AcDbEntity
  8
0
100
AcDbPolyline
 90
     3
 70
     0
 43
0.400000
 10
78.450000
 20
215.175000
 10
78.450000
 20
208.175000
 10
78.450000
 20
206.475000
  0
ARC
  5
a77
100
AcDbEntity
  8
0
370
    40
100
AcDbCircle
 10
20.525000
 20
185.175000
 40
4.575000
100
AcDbArc
 50
90.000000
 51
180.000000
  0
ARC
  5
a7a
100
AcDbEntity
  8
0
370
    40
100
AcDbCircle
 10
45.100000
 20
194.350000
 40
4.575000
100
AcDbArc
 50
270.000000
 51
360.000000
  0
ARC
  5
a7d
100
AcDbEntity
  8
0
370
    40
100
AcDbCircle
 10
54.275000
 20
215.175000
 40
4.575000
100
AcDbArc
 50
90.000000
 51
180.000000
  0
ARC
  5
a80
100
AcDbEntity
  8
0
370
    40
100
AcDbCircle
 10
73.850000
 20
215.175000
 40
4.575000
100
AcDbArc
 50
360.000000
 51
90.000000
  0
LINE
  5
a83
100
AcDbEntity
  8
0
370
    40
100
AcDbLine
 10
59.075000
 20
172.550000
 11
59.075000
 21
186.925000
  0
LINE
  5
a86
100
AcDbEntity
  8
0
370
    40
100
AcDbLine
 10
59.075000
 20
186.475000
 11
59.075000
 21
210.900000
  0
LINE
  5
a89
100
AcDbEntity
  8
0
370
    40
100
AcDbLine
 10
60.725000
 20
212.550000
 11
74.300000
 21
212.550000
  0
LWPOLYLINE
  5
a8c
100
AcDbEntity
  8
0
100
AcDbPolyline
 90
     3
 70
     0
 43
0.400000
 10
75.950000
 20
210.900000
 10
75.950000
 20
208.175000
 10
75.950000
 20
206.550000
  0
ARC
  5
a95
100
AcDbEntity
  8
0
370
    40
100
AcDbCircle
 10
60.750000
 20
210.875000
 40
1.650000
100
AcDbArc
 50
90.000000
 51
180.000000
  0
ARC
  5
a98
100
AcDbEntity
  8
0
370
    40
100
AcDbCircle
 10
74.275000
 20
210.875000
 40
1.650000
100
AcDbArc
 50
360.000000
 51
90.000000
  0
MTEXT
  5
a9b
100
AcDbEntity
  8
0
100
AcDbMText
 10
54.700000
 20
223.675000
 40
1.612500
 41
30.960000
 71
     1
 72
     5
  1
\fＭＳ ゴシック|b0|i0|c128|p49;\H1.6125;\T1.0200;電流計端子へ接\T1.2422;続
 44
0.985857
 73
     1
  7
BIGFONT
  0
MTEXT
  5
a9e
100
AcDbEntity
  8
0
100
AcDbMText
 10
57.850000
 20
216.450000
 40
1.612500
 41
34.830000
 71
     1
 72
     5
  1
\fＭＳ ゴシック|b0|i0|c128|p49;\H1.6125;\T1.0200;電位差計端子へ接\T1.2422;続
 44
0.985857
 73
     1
  7
BIGFONT
  0
MTEXT
  5
aa1
100
AcDbEntity
  8
0
100
AcDbMText
 10
63.150000
 20
179.600000
 40
2.662500
 41
60.705000
 71
     1
 72
     5
  1
\fＭＳ ゴシック|b0|i0|c128|p49;\T1.0200;記録器(シ　オロカ　ー3030)
 44
0.908099
 73
     1
  7
BIGFONT
  0
MTEXT
  5
aa4
100
AcDbEntity
  8
0
100
AcDbMText
 10
97.525000
 20
195.200000
 40
2.662500
 41
38.340000
 71
     1
 72
     5
  1
\fＭＳ ゴシック|b0|i0|c128|p49;\T1.0200;電源(ハ　ッテリー)
 44
0.908099
 73
     1
  7
BIGFONT
  0
MTEXT
  5
aa7
100
AcDbEntity
  8
0
100
AcDbMText
 10
34.075000
 20
230.625000
 40
2.662500
 41
19.170000
 71
     1
 72
     5
  1
\fＭＳ ゴシック|b0|i0|c128|p49;\T1.0200;シーブ
 44
0.908099
 73
     1
  7
BIGFONT
  0
SPLINE
  5
aaa
100
AcDbEntity
  8
0
370
     0
100
AcDbSpline
210
0.000000
220
0.000000
230
1.000000
 70
     8
 71
     3
 72
    14
 73
    10
 74
     0
 42
0.0000001
 43
0.0000001
 44
0.0000000001
 40
0.000000
 40
0.000000
 40
0.000000
 40
0.000000
 40
1.267379
 40
1.267379
 40
1.267379
 40
3.172799
 40
3.172799
 40
3.172799
 40
4.580368
 40
4.580368
 40
4.580368
 40
4.580368
 10
55.275000
 20
171.475000
 30
0.000000
 10
55.475000
 20
171.375000
 30
0.000000
 10
56.525000
 20
171.275000
 30
0.000000
 10
56.450000
 20
171.000000
 30
0.000000
 10
56.400000
 20
170.725000
 30
0.000000
 10
55.000000
 20
170.100000
 30
0.000000
 10
54.950000
 20
169.825000
 30
0.000000
 10
54.925000
 20
169.550000
 30
0.000000
 10
56.075000
 20
169.425000
 30
0.000000
 10
56.275000
 20
169.350000
 30
0.000000
  0
SPLINE
  5
aad
100
AcDbEntity
  8
0
370
     0
100
AcDbSpline
210
0.000000
220
0.000000
230
1.000000
 70
     8
 71
     3
 72
    14
 73
    10
 74
     0
 42
0.0000001
 43
0.0000001
 44
0.0000000001
 40
0.000000
 40
0.000000
 40
0.000000
 40
0.000000
 40
1.267379
 40
1.267379
 40
1.267379
 40
3.172799
 40
3.172799
 40
3.172799
 40
4.580368
 40
4.580368
 40
4.580368
 40
4.580368
 10
19.800000
 20
171.475000
 30
0.000000
 10
20.000000
 20
171.375000
 30
0.000000
 10
21.050000
 20
171.275000
 30
0.000000
 10
20.975000
 20
171.000000
 30
0.000000
 10
20.925000
 20
170.725000
 30
0.000000
 10
19.525000
 20
170.100000
 30
0.000000
 10
19.475000
 20
169.825000
 30
0.000000
 10
19.450000
 20
169.550000
 30
0.000000
 10
20.600000
 20
169.425000
 30
0.000000
 10
20.800000
 20
169.350000
 30
0.000000
  0
SPLINE
  5
ab0
100
AcDbEntity
  8
0
370
     0
100
AcDbSpline
210
0.000000
220
0.000000
230
1.000000
 70
     8
 71
     3
 72
    14
 73
    10
 74
     0
 42
0.0000001
 43
0.0000001
 44
0.0000000001
 40
0.000000
 40
0.000000
 40
0.000000
 40
0.000000
 40
1.267379
 40
1.267379
 40
1.267379
 40
3.172799
 40
3.172799
 40
3.172799
 40
4.580368
 40
4.580368
 40
4.580368
 40
4.580368
 10
21.025000
 20
171.475000
 30
0.000000
 10
21.225000
 20
171.375000
 30
0.000000
 10
22.275000
 20
171.275000
 30
0.000000
 10
22.200000
 20
171.000000
 30
0.000000
 10
22.150000
 20
170.725000
 30
0.000000
 10
20.750000
 20
170.100000
 30
0.000000
 10
20.700000
 20
169.825000
 30
0.000000
 10
20.675000
 20
169.550000
 30
0.000000
 10
21.825000
 20
169.425000
 30
0.000000
 10
22.025000
 20
169.350000
 30
0.000000
  0
SPLINE
  5
ab3
100
AcDbEntity
  8
0
370
     0
100
AcDbSpline
210
0.000000
220
0.000000
230
1.000000
 70
     8
 71
     3
 72
    14
 73
    10
 74
     0
 42
0.0000001
 43
0.0000001
 44
0.0000000001
 40
0.000000
 40
0.000000
 40
0.000000
 40
0.000000
 40
1.267379
 40
1.267379
 40
1.267379
 40
3.172799
 40
3.172799
 40
3.172799
 40
4.580368
 40
4.580368
 40
4.580368
 40
4.580368
 10
54.075000
 20
171.450000
 30
0.000000
 10
54.275000
 20
171.350000
 30
0.000000
 10
55.325000
 20
171.250000
 30
0.000000
 10
55.250000
 20
170.975000
 30
0.000000
 10
55.200000
 20
170.700000
 30
0.000000
 10
53.800000
 20
170.075000
 30
0.000000
 10
53.750000
 20
169.800000
 30
0.000000
 10
53.725000
 20
169.525000
 30
0.000000
 10
54.875000
 20
169.400000
 30
0.000000
 10
55.075000
 20
169.325000
 30
0.000000
  0
MTEXT
  5
ab6
100
AcDbEntity
  8
0
100
AcDbMText
 10
96.125000
 20
79.150000
 40
3.550000
 41
12.780000
 71
     1
 72
     5
  1
\fＭＳ ゴシック|b0|i0|c128|p49;\T0.9100;25cm
 44
0.718310
 73
     1
 11
0.0000000000000000
 21
1.000000
 31
0.000000
  7
BIGFONT
  0
MTEXT
  5
ab9
100
AcDbEntity
  8
0
100
AcDbMText
 10
91.100000
 20
85.350000
 40
3.550000
 41
12.780000
 71
     1
 72
     5
  1
\fＭＳ ゴシック|b0|i0|c128|p49;\T0.9100;50Cm
 44
0.718310
 73
     1
 11
0.0000000000000000
 21
1.000000
 31
0.000000
  7
BIGFONT
  0
MTEXT
  5
abc
100
AcDbEntity
  8
0
100
AcDbMText
 10
85.175000
 20
96.000000
 40
3.550000
 41
15.975000
 71
     1
 72
     5
  1
\fＭＳ ゴシック|b0|i0|c128|p49;\T0.9100;100cm
 44
0.718310
 73
     1
 11
0.0000000000000000
 21
1.000000
 31
0.000000
  7
BIGFONT
  0
MTEXT
  5
abf
100
AcDbEntity
  8
0
100
AcDbMText
 10
78.950000
 20
106.400000
 40
3.550000
 41
15.975000
 71
     1
 72
     5
  1
\fＭＳ ゴシック|b0|i0|c128|p49;\T0.9100;300cm
 44
0.718310
 73
     1
 11
0.0000000000000000
 21
1.000000
 31
0.000000
  7
BIGFONT
  0
LINE
  5
ac2
100
AcDbEntity
  8
0
370
     0
100
AcDbLine
 10
50.325000
 20
130.050000
 11
40.650000
 21
121.000000
  0
LWPOLYLINE
  5
ac5
100
AcDbEntity
  8
0
100
AcDbPolyline
 90
     3
 70
     0
 10
41.875000
 20
123.750000
 10
40.650000
 20
121.000000
 10
43.450000
 20
122.075000
  0
MTEXT
  5
ace
100
AcDbEntity
  8
0
100
AcDbMText
 10
45.950000
 20
134.275000
 40
2.662500
 41
38.340000
 71
     1
 72
     5
  1
\fＭＳ ゴシック|b0|i0|c128|p49;\T1.0200;ボーリング孔
 44
0.908099
 73
     1
  7
BIGFONT
  0
LINE
  5
ad1
100
AcDbEntity
  8
0
370
     0
100
AcDbLine
 10
27.525000
 20
100.350000
 11
37.200000
 21
91.300000
  0
LWPOLYLINE
  5
ad4
100
AcDbEntity
  8
0
100
AcDbPolyline
 90
     3
 70
     0
 10
35.975000
 20
94.050000
 10
37.200000
 20
91.300000
 10
34.400000
 20
92.375000
  0
MTEXT
  5
add
100
AcDbEntity
  8
0
100
AcDbMText
 10
15.975000
 20
104.900000
 40
2.662500
 41
25.560000
 71
     1
 72
     5
  1
\fＭＳ ゴシック|b0|i0|c128|p49;\T1.0200;プローブ
 44
0.908099
 73
     1
  7
BIGFONT
  0
MTEXT
  5
ae0
100
AcDbEntity
  8
0
100
AcDbMText
 10
115.975000
 20
128.025000
 40
3.550000
 41
12.780000
 71
     1
 72
     5
  1
\fＭＳ ゴシック|b0|i0|c128|p49;\T1.0200;Ｍ３
 44
0.718310
 73
     1
  7
BIGFONT
  0
MTEXT
  5
ae3
100
AcDbEntity
  8
0
100
AcDbMText
 10
115.950000
 20
105.200000
 40
3.550000
 41
12.780000
 71
     1
 72
     5
  1
\fＭＳ ゴシック|b0|i0|c128|p49;\T1.0200;Ｍ２
 44
0.718310
 73
     1
  7
BIGFONT
  0
MTEXT
  5
ae6
100
AcDbEntity
  8
0
100
AcDbMText
 10
116.600000
 20
91.775000
 40
3.550000
 41
12.780000
 71
     1
 72
     5
  1
\fＭＳ ゴシック|b0|i0|c128|p49;\T1.0200;Ｍ１
 44
0.718310
 73
     1
  7
BIGFONT
  0
MTEXT
  5
ae9
100
AcDbEntity
  8
0
100
AcDbMText
 10
117.200000
 20
77.400000
 40
3.550000
 41
6.390000
 71
     1
 72
     5
  1
\fＭＳ ゴシック|b0|i0|c128|p49;\T1.0200;Ａ
 44
0.718310
 73
     1
  7
BIGFONT
  0
MTEXT
  5
aec
100
AcDbEntity
  8
0
100
AcDbMText
 10
10.975000
 20
174.900000
 40
3.550000
 41
6.390000
 71
     1
 72
     5
  1
\fＭＳ ゴシック|b0|i0|c128|p49;\T1.0200;Ｂ
 44
0.718310
 73
     1
  7
BIGFONT
  0
MTEXT
  5
aef
100
AcDbEntity
  8
0
100
AcDbMText
 10
60.650000
 20
174.900000
 40
3.550000
 41
6.390000
 71
     1
 72
     5
  1
\fＭＳ ゴシック|b0|i0|c128|p49;\T1.0200;Ｎ
 44
0.718310
 73
     1
  7
BIGFONT
  0
MTEXT
  5
af2
100
AcDbEntity
  8
0
100
AcDbMText
 10
9.075000
 20
159.275000
 40
2.662500
 41
25.560000
 71
     1
 72
     5
  1
\fＭＳ ゴシック|b0|i0|c128|p49;\T1.0200;電流電極
 44
0.908099
 73
     1
  7
BIGFONT
  0
MTEXT
  5
af5
100
AcDbEntity
  8
0
100
AcDbMText
 10
52.525000
 20
159.575000
 40
2.662500
 41
25.560000
 71
     1
 72
     5
  1
\fＭＳ ゴシック|b0|i0|c128|p49;\T1.0200;電位電極
 44
0.908099
 73
     1
  7
BIGFONT
  0
MTEXT
  5
af8
100
AcDbEntity
  8
0
100
AcDbMText
 10
83.775000
 20
56.550000
 40
3.187500
 41
53.550000
 71
     1
 72
     5
  1
\fＭＳ ゴシック|b0|i0|c128|p49;\H3.1875;\T1.0200;プローブ拡大\T0.9578;図
 44
0.886310
 73
     1
  7
BIGFONT
  0
MTEXT
  5
afb
100
AcDbEntity
  8
0
100
AcDbMText
 10
122.800000
 20
77.425000
 40
2.662500
 41
31.950000
 71
     1
 72
     5
  1
\fＭＳ ゴシック|b0|i0|c128|p49;\T1.0200;(電流電極)
 44
0.908099
 73
     1
  7
BIGFONT
  0
MTEXT
  5
afe
100
AcDbEntity
  8
0
100
AcDbMText
 10
124.075000
 20
127.725000
 40
2.662500
 41
31.950000
 71
     1
 72
     5
  1
\fＭＳ ゴシック|b0|i0|c128|p49;\T1.0200;(電位電極)
 44
0.908099
 73
     1
  7
BIGFONT
  0
MTEXT
  5
b01
100
AcDbEntity
  8
0
100
AcDbMText
 10
123.750000
 20
91.450000
 40
2.662500
 41
31.950000
 71
     1
 72
     5
  1
\fＭＳ ゴシック|b0|i0|c128|p49;\T1.0200;(電位電極)
 44
0.908099
 73
     1
  7
BIGFONT
  0
MTEXT
  5
b04
100
AcDbEntity
  8
0
100
AcDbMText
 10
123.775000
 20
105.200000
 40
2.662500
 41
31.950000
 71
     1
 72
     5
  1
\fＭＳ ゴシック|b0|i0|c128|p49;\T1.0200;(電位電極)
 44
0.908099
 73
     1
  7
BIGFONT
  0
LINE
  5
b07
100
AcDbEntity
  8
0
370
    20
100
AcDbLine
 10
46.450000
 20
204.375000
 11
52.550000
 21
204.375000
  0
LINE
  5
b0a
100
AcDbEntity
  8
0
370
    20
100
AcDbLine
 10
55.075000
 20
205.825000
 11
56.675000
 21
208.425000
  0
LINE
  5
b0d
100
AcDbEntity
  8
0
370
    20
100
AcDbLine
 10
59.225000
 20
209.850000
 11
72.350000
 21
209.850000
  0
LINE
  5
b10
100
AcDbEntity
  8
0
370
    20
100
AcDbLine
 10
73.775000
 20
208.425000
 11
73.775000
 21
206.475000
  0
ARC
  5
b13
100
AcDbEntity
  8
0
370
    20
100
AcDbCircle
 10
52.500000
 20
207.400000
 40
3.000000
100
AcDbArc
 50
270.000000
 51
328.812500
  0
ARC
  5
b16
100
AcDbEntity
  8
0
370
    20
100
AcDbCircle
 10
59.250000
 20
206.850000
 40
3.000000
100
AcDbArc
 50
90.000000
 51
148.812500
  0
ARC
  5
b19
100
AcDbEntity
  8
0
370
    20
100
AcDbCircle
 10
72.325000
 20
208.425000
 40
1.425000
100
AcDbArc
 50
360.000000
 51
90.000000
  0
LINE
  5
b1c
100
AcDbEntity
  8
0
370
    20
100
AcDbLine
 10
46.475000
 20
203.925000
 11
52.500000
 21
203.925000
  0
LINE
  5
b1f
100
AcDbEntity
  8
0
370
    20
100
AcDbLine
 10
55.575000
 20
205.625000
 11
57.225000
 21
208.225000
  0
LINE
  5
b22
100
AcDbEntity
  8
0
370
    20
100
AcDbLine
 10
59.350000
 20
209.375000
 11
72.300000
 21
209.375000
  0
LINE
  5
b25
100
AcDbEntity
  8
0
370
    20
100
AcDbLine
 10
73.375000
 20
208.300000
 11
73.375000
 21
206.475000
  0
ARC
  5
b28
100
AcDbEntity
  8
0
370
    20
100
AcDbCircle
 10
72.275000
 20
208.300000
 40
1.075000
100
AcDbArc
 50
360.000000
 51
90.000000
  0
ARC
  5
b2b
100
AcDbEntity
  8
0
370
    20
100
AcDbCircle
 10
52.475000
 20
207.650000
 40
3.700000
100
AcDbArc
 50
270.000000
 51
327.375000
  0
ARC
  5
b2e
100
AcDbEntity
  8
0
370
    20
100
AcDbCircle
 10
59.375000
 20
206.825000
 40
2.550000
100
AcDbArc
 50
90.000000
 51
147.375000
  0
HATCH
  5
b31
330
F6
100
AcDbEntity
  8
0
100
AcDbHatch
 10
0.0
 20
0.0
 30
0.0
210
0.0
220
0.0
230
1.0
  2
SOLID
 70
     1
 71
     0
 91
     1
 92
     7
 72
     0
 73
     1
 93
    37
 10
46.450000
 20
204.375000
 10
52.325000
 20
204.375000
 10
53.450000
 20
204.575000
 10
54.075000
 20
204.875000
 10
54.775000
 20
205.475000
 10
55.050000
 20
205.825000
 10
56.700000
 20
208.400000
 10
57.150000
 20
208.950000
 10
57.625000
 20
209.325000
 10
58.100000
 20
209.575000
 10
58.775000
 20
209.750000
 10
59.400000
 20
209.850000
 10
72.525000
 20
209.850000
 10
73.025000
 20
209.675000
 10
73.450000
 20
209.300000
 10
73.675000
 20
208.825000
 10
73.775000
 20
208.275000
 10
73.775000
 20
206.475000
 10
73.375000
 20
206.475000
 10
73.375000
 20
208.275000
 10
73.300000
 20
208.750000
 10
73.100000
 20
209.025000
 10
72.825000
 20
209.225000
 10
72.625000
 20
209.325000
 10
72.325000
 20
209.375000
 10
59.225000
 20
209.375000
 10
58.525000
 20
209.250000
 10
58.050000
 20
209.025000
 10
57.625000
 20
208.675000
 10
57.200000
 20
208.250000
 10
55.550000
 20
205.650000
 10
55.275000
 20
205.200000
 10
54.700000
 20
204.675000
 10
53.950000
 20
204.225000
 10
53.300000
 20
204.025000
 10
52.550000
 20
203.950000
 10
46.450000
 20
203.950000
 97
     1
330
b34
 75
     0
 76
     1
 47
0.651316
 98
     1
 10
0.0
 20
0.0
  0
LWPOLYLINE
  5
b34
330
F6
100
AcDbEntity
  8
0
100
AcDbPolyline
 90
    38
 70
     0
 43
0.200000
 10
46.450000
 20
204.375000
 10
52.325000
 20
204.375000
 10
53.450000
 20
204.575000
 10
54.075000
 20
204.875000
 10
54.775000
 20
205.475000
 10
55.050000
 20
205.825000
 10
56.700000
 20
208.400000
 10
57.150000
 20
208.950000
 10
57.625000
 20
209.325000
 10
58.100000
 20
209.575000
 10
58.775000
 20
209.750000
 10
59.400000
 20
209.850000
 10
72.525000
 20
209.850000
 10
73.025000
 20
209.675000
 10
73.450000
 20
209.300000
 10
73.675000
 20
208.825000
 10
73.775000
 20
208.275000
 10
73.775000
 20
206.475000
 10
73.375000
 20
206.475000
 10
73.375000
 20
208.275000
 10
73.300000
 20
208.750000
 10
73.100000
 20
209.025000
 10
72.825000
 20
209.225000
 10
72.625000
 20
209.325000
 10
72.325000
 20
209.375000
 10
59.225000
 20
209.375000
 10
58.525000
 20
209.250000
 10
58.050000
 20
209.025000
 10
57.625000
 20
208.675000
 10
57.200000
 20
208.250000
 10
55.550000
 20
205.650000
 10
55.275000
 20
205.200000
 10
54.700000
 20
204.675000
 10
53.950000
 20
204.225000
 10
53.300000
 20
204.025000
 10
52.550000
 20
203.950000
 10
46.450000
 20
203.950000
 10
46.450000
 20
204.375000
  0
LWPOLYLINE
  5
b83
100
AcDbEntity
  8
0
100
AcDbPolyline
 90
     7
 70
     0
 43
0.200000
 10
44.300000
 20
92.050000
 10
68.050000
 20
105.375000
 10
68.050000
 20
119.950000
 10
79.700000
 20
93.700000
 10
72.625000
 20
64.125000
 10
71.575000
 20
79.750000
 10
44.300000
 20
79.550000
  0
LINE
  5
b94
100
AcDbEntity
  8
0
370
    20
100
AcDbLine
 10
99.225000
 20
207.550000
 11
108.775000
 21
207.550000
  0
LINE
  5
b97
100
AcDbEntity
  8
0
370
    20
100
AcDbLine
 10
109.150000
 20
207.175000
 11
109.150000
 21
198.250000
  0
LINE
  5
b9a
100
AcDbEntity
  8
0
370
    20
100
AcDbLine
 10
108.775000
 20
197.875000
 11
99.225000
 21
197.875000
  0
LINE
  5
b9d
100
AcDbEntity
  8
0
370
    20
100
AcDbLine
 10
98.850000
 20
198.250000
 11
98.850000
 21
207.175000
  0
ARC
  5
ba0
100
AcDbEntity
  8
0
370
    20
100
AcDbCircle
 10
108.750000
 20
207.150000
 40
0.375000
100
AcDbArc
 50
360.000000
 51
90.000000
  0
ARC
  5
ba3
100
AcDbEntity
  8
0
370
    20
100
AcDbCircle
 10
108.750000
 20
198.275000
 40
0.375000
100
AcDbArc
 50
270.000000
 51
360.000000
  0
ARC
  5
ba6
100
AcDbEntity
  8
0
370
    20
100
AcDbCircle
 10
99.250000
 20
198.275000
 40
0.375000
100
AcDbArc
 50
180.000000
 51
270.000000
  0
ARC
  5
ba9
100
AcDbEntity
  8
0
370
    20
100
AcDbCircle
 10
99.250000
 20
207.150000
 40
0.375000
100
AcDbArc
 50
90.000000
 51
180.000000
  0
SPLINE
  5
bac
100
AcDbEntity
  8
0
370
    20
100
AcDbSpline
210
0.000000
220
0.000000
230
1.000000
 70
     8
 71
     3
 72
    11
 73
     7
 74
     0
 42
0.0000001
 43
0.0000001
 44
0.0000000001
 40
0.000000
 40
0.000000
 40
0.000000
 40
0.000000
 40
3.221122
 40
3.221122
 40
3.221122
 40
7.472298
 40
7.472298
 40
7.472298
 40
7.472298
 10
100.425000
 20
208.100000
 30
0.000000
 10
100.100000
 20
208.500000
 30
0.000000
 10
99.475000
 20
210.200000
 30
0.000000
 10
98.425000
 20
210.625000
 30
0.000000
 10
97.400000
 20
211.025000
 30
0.000000
 10
94.900000
 20
210.525000
 30
0.000000
 10
94.175000
 20
210.525000
 30
0.000000
  0
SPLINE
  5
baf
100
AcDbEntity
  8
0
370
    20
100
AcDbSpline
210
0.000000
220
0.000000
230
1.000000
 70
     8
 71
     3
 72
    11
 73
     7
 74
     0
 42
0.0000001
 43
0.0000001
 44
0.0000000001
 40
0.000000
 40
0.000000
 40
0.000000
 40
0.000000
 40
6.912037
 40
6.912037
 40
6.912037
 40
14.927841
 40
14.927841
 40
14.927841
 40
14.927841
 10
107.250000
 20
207.950000
 30
0.000000
 10
106.400000
 20
208.700000
 30
0.000000
 10
104.200000
 20
212.025000
 30
0.000000
 10
102.025000
 20
212.475000
 30
0.000000
 10
99.875000
 20
212.900000
 30
0.000000
 10
95.550000
 20
210.850000
 30
0.000000
 10
94.250000
 20
210.525000
 30
0.000000
  0
SPLINE
  5
bb2
100
AcDbEntity
  8
0
370
    40
100
AcDbSpline
210
0.000000
220
0.000000
230
1.000000
 70
     8
 71
     3
 72
    14
 73
    10
 74
     0
 42
0.0000001
 43
0.0000001
 44
0.0000000001
 40
0.000000
 40
0.000000
 40
0.000000
 40
0.000000
 40
3.330165
 40
3.330165
 40
3.330165
 40
18.870938
 40
18.870938
 40
18.870938
 40
26.663884
 40
26.663884
 40
26.663884
 40
26.663884
 10
68.550000
 20
206.450000
 30
0.000000
 10
68.975000
 20
206.800000
 30
0.000000
 10
68.050000
 20
208.150000
 30
0.000000
 10
71.050000
 20
208.650000
 30
0.000000
 10
74.075000
 20
209.125000
 30
0.000000
 10
82.725000
 20
209.025000
 30
0.000000
 10
86.575000
 20
209.350000
 30
0.000000
 10
90.450000
 20
209.650000
 30
0.000000
 10
93.000000
 20
210.350000
 30
0.000000
 10
94.275000
 20
210.550000
 30
0.000000
  0
LINE
  5
bb5
100
AcDbEntity
  8
0
370
    20
100
AcDbLine
 10
99.175000
 20
207.000000
 11
108.700000
 21
207.000000
  0
LINE
  5
bb8
100
AcDbEntity
  8
0
370
    20
100
AcDbLine
 10
101.125000
 20
205.600000
 11
101.125000
 21
199.200000
  0
LINE
  5
bbb
100
AcDbEntity
  8
0
370
    20
100
AcDbLine
 10
104.000000
 20
205.600000
 11
104.000000
 21
199.200000
  0
LINE
  5
bbe
100
AcDbEntity
  8
0
370
    20
100
AcDbLine
 10
106.900000
 20
205.600000
 11
106.900000
 21
199.200000
  0
LINE
  5
bc1
100
AcDbEntity
  8
0
370
    20
100
AcDbLine
 10
106.875000
 20
207.550000
 11
106.875000
 21
208.075000
  0
LINE
  5
bc4
100
AcDbEntity
  8
0
370
    20
100
AcDbLine
 10
107.200000
 20
208.400000
 11
107.525000
 21
208.400000
  0
LINE
  5
bc7
100
AcDbEntity
  8
0
370
    20
100
AcDbLine
 10
107.850000
 20
208.075000
 11
107.850000
 21
207.550000
  0
ARC
  5
bca
100
AcDbEntity
  8
0
370
    20
100
AcDbCircle
 10
107.225000
 20
208.050000
 40
0.325000
100
AcDbArc
 50
90.000000
 51
180.000000
  0
ARC
  5
bcd
100
AcDbEntity
  8
0
370
    20
100
AcDbCircle
 10
107.500000
 20
208.050000
 40
0.325000
100
AcDbArc
 50
360.000000
 51
90.000000
  0
HATCH
  5
bd0
330
F6
100
AcDbEntity
  8
0
100
AcDbHatch
 10
0.0
 20
0.0
 30
0.0
210
0.0
220
0.0
230
1.0
  2
SOLID
 70
     1
 71
     0
 91
     1
 92
     7
 72
     0
 73
     1
 93
     8
 10
106.900000
 20
207.550000
 10
106.900000
 20
208.025000
 10
107.025000
 20
208.300000
 10
107.175000
 20
208.375000
 10
107.400000
 20
208.400000
 10
107.675000
 20
208.325000
 10
107.825000
 20
208.100000
 10
107.825000
 20
207.550000
 97
     1
330
bd3
 75
     0
 76
     1
 47
0.651316
 98
     1
 10
0.0
 20
0.0
  0
LWPOLYLINE
  5
bd3
330
F6
100
AcDbEntity
  8
0
100
AcDbPolyline
 90
     8
 70
     1
 43
0.200000
 10
106.900000
 20
207.550000
 10
106.900000
 20
208.025000
 10
107.025000
 20
208.300000
 10
107.175000
 20
208.375000
 10
107.400000
 20
208.400000
 10
107.675000
 20
208.325000
 10
107.825000
 20
208.100000
 10
107.825000
 20
207.550000
  0
LINE
  5
be6
100
AcDbEntity
  8
0
370
    20
100
AcDbLine
 10
100.150000
 20
207.550000
 11
100.150000
 21
208.075000
  0
LINE
  5
be9
100
AcDbEntity
  8
0
370
    20
100
AcDbLine
 10
100.475000
 20
208.400000
 11
100.800000
 21
208.400000
  0
LINE
  5
bec
100
AcDbEntity
  8
0
370
    20
100
AcDbLine
 10
101.125000
 20
208.075000
 11
101.125000
 21
207.550000
  0
ARC
  5
bef
100
AcDbEntity
  8
0
370
    20
100
AcDbCircle
 10
100.500000
 20
208.050000
 40
0.325000
100
AcDbArc
 50
90.000000
 51
180.000000
  0
ARC
  5
bf2
100
AcDbEntity
  8
0
370
    20
100
AcDbCircle
 10
100.775000
 20
208.050000
 40
0.325000
100
AcDbArc
 50
360.000000
 51
90.000000
  0
HATCH
  5
bf5
330
F6
100
AcDbEntity
  8
0
100
AcDbHatch
 10
0.0
 20
0.0
 30
0.0
210
0.0
220
0.0
230
1.0
  2
SOLID
 70
     1
 71
     0
 91
     1
 92
     7
 72
     0
 73
     1
 93
     8
 10
100.175000
 20
207.550000
 10
100.175000
 20
208.025000
 10
100.300000
 20
208.300000
 10
100.450000
 20
208.375000
 10
100.675000
 20
208.400000
 10
100.950000
 20
208.325000
 10
101.100000
 20
208.100000
 10
101.100000
 20
207.550000
 97
     1
330
bf8
 75
     0
 76
     1
 47
0.651316
 98
     1
 10
0.0
 20
0.0
  0
LWPOLYLINE
  5
bf8
330
F6
100
AcDbEntity
  8
0
100
AcDbPolyline
 90
     8
 70
     1
 43
0.200000
 10
100.175000
 20
207.550000
 10
100.175000
 20
208.025000
 10
100.300000
 20
208.300000
 10
100.450000
 20
208.375000
 10
100.675000
 20
208.400000
 10
100.950000
 20
208.325000
 10
101.100000
 20
208.100000
 10
101.100000
 20
207.550000
  0
ENDSEC
  0
SECTION
  2
OBJECTS
  0
DICTIONARY
  5
c13
100
AcDbDictionary
281
     1
  3
ACAD_COLOR
350
c14
  3
ACAD_GROUP
350
c15
  3
ACAD_LAYOUT
350
c16
  3
ACAD_MATERIAL
350
c17
  3
ACAD_MLINESTYLE
350
c18
  3
CONTENTDICTIONARY
350
c1e
  0
DICTIONARY
  5
c14
102
{ACAD_REACTORS
330
c13
102
}
330
c13
100
AcDbDictionary
281
     1
  0
DICTIONARY
  5
c15
102
{ACAD_REACTORS
330
c13
102
}
330
c13
100
AcDbDictionary
281
     1
  3
Layout1
350
c1f
  3
Layout2
350
c20
  3
Model
350
c63
  0
DICTIONARY
  5
c16
102
{ACAD_REACTORS
330
c13
102
}
330
c13
100
AcDbDictionary
281
     1
  0
DICTIONARY
  5
c17
102
{ACAD_REACTORS
330
c13
102
}
330
c13
100
AcDbDictionary
281
     1
  0
DICTIONARY
  5
c18
102
{ACAD_REACTORS
330
c13
102
}
330
c13
100
AcDbDictionary
281
     1
  3
Standard
350
c21
  0
DICTIONARY
  5
c19
102
{ACAD_REACTORS
330
c13
102
}
330
c13
100
AcDbDictionary
281
     1
  0
ACDBDICTIONARYWDFLT
  5
c1a
102
{ACAD_REACTORS
330
c13
102
}
330
c13
100
AcDbDictionary
281
     1
  3
Normal
350
c64
100
AcDbDictionaryWithDefault
340
c64
  0
DICTIONARY
  5
c1b
102
{ACAD_REACTORS
330
c13
102
}
330
c13
100
AcDbDictionary
281
     1
  3
Standard
350
c65
  0
DICTIONARY
  5
c1c
102
{ACAD_REACTORS
330
c13
102
}
330
c13
100
AcDbDictionary
281
     1
  3
CEPSNTYPE
350
c23
  3
FINGERPRINTGUID
350
c24
  3
HYPERLINKBASE
350
c25
  3
INSUNITS
350
c26
  3
LAYOUTDICT
350
c27
  3
LWETCUNION
350
c28
  3
PLOTSETDICT
350
c29
  3
PLOTSTYLNAMDICT
350
c2a
  3
PSVPSCALE
350
c2b
  3
PUCSBASE
350
c2c
  3
PUCSORGBACK
350
c2d
  3
PUCSORGBOTTOM
350
c2e
  3
PUCSORGFRONT
350
c2f
  3
PUCSORGLEFT
350
c30
  3
PUCSORGRIGHT
350
c31
  3
PUCSORGTOP
350
c32
  3
PUCSORTHOREF
350
c33
  3
PUCSORTHOVIEW
350
c34
  3
STYLESHEET
350
c35
  3
TSTACKALIGN
350
c36
  3
TSTACKSIZE
350
c37
  3
UCSBASE
350
c38
  3
UCSORGBACK
350
c39
  3
UCSORGBOTTOM
350
c3a
  3
UCSORGFRONT
350
c3b
  3
UCSORGLEFT
350
c3c
  3
UCSORGRIGHT
350
c3d
  3
UCSORGTOP
350
c3e
  3
UCSORTHOREF
350
c3f
  3
UCSORTHOVIEW
350
c40
  3
VERSIONGUID
350
c41
  0
DICTIONARY
  5
c1d
102
{ACAD_REACTORS
330
c13
102
}
330
c13
100
AcDbDictionary
281
     1
  3
CTABLESTYLE
350
c42
  3
DIMASSOC
350
c43
  3
HIDETEXT
350
c44
  3
PROJECTNAME
350
c45
  0
LAYOUT
  5
c1e
102
{ACAD_XDICTIONARY
360
f29
102
}
102
{ACAD_REACTORS
330
c14
102
}
330
c14
100
AcDbPlotSettings
  1

  2

  4

  6

 40
0.000000
 41
0.000000
 42
0.000000
 43
0.000000
 44
0.000000
 45
0.000000
 46
0.000000
 47
0.000000
 48
0.000000
 49
0.000000
140
0.000000
141
0.000000
142
1.000000
143
1.000000
 70
   688
 72
     0
 73
     0
 74
     5
  7

 75
    16
147
1.000000
148
0.000000
149
0.000000
100
AcDbLayout
  1
Layout1
 70
     1
 71
     1
 10
0.000000
 20
0.000000
 11
157.000000
 21
246.000000
 12
0.000000
 22
0.000000
 32
0.000000
 14
100000000000000000000.000000
 24
100000000000000000000.000000
 34
100000000000000000000.000000
 15
-100000000000000000000.000000
 25
-100000000000000000000.000000
 35
-100000000000000000000.000000
146
0.000000
 13
0.000000
 23
0.000000
 33
0.000000
 16
1.000000
 26
0.000000
 36
0.000000
 17
0.000000
 27
1.000000
 37
0.000000
 76
     0
330
c18
  0
LAYOUT
  5
c1f
102
{ACAD_XDICTIONARY
360
f2b
102
}
102
{ACAD_REACTORS
330
c14
102
}
330
c14
100
AcDbPlotSettings
  1

  2

  4

  6

 40
0.000000
 41
0.000000
 42
0.000000
 43
0.000000
 44
0.000000
 45
0.000000
 46
0.000000
 47
0.000000
 48
0.000000
 49
0.000000
140
0.000000
141
0.000000
142
1.000000
143
1.000000
 70
   688
 72
     0
 73
     0
 74
     5
  7

 75
    16
147
1.000000
148
0.000000
149
0.000000
100
AcDbLayout
  1
Layout2
 70
     1
 71
     2
 10
0.000000
 20
0.000000
 11
157.000000
 21
246.000000
 12
0.000000
 22
0.000000
 32
0.000000
 14
0.000000
 24
0.000000
 34
0.000000
 15
0.000000
 25
0.000000
 35
0.000000
146
0.000000
 13
0.000000
 23
0.000000
 33
0.000000
 16
1.000000
 26
0.000000
 36
0.000000
 17
0.000000
 27
1.000000
 37
0.000000
 76
     0
330
c1f
  0
LAYOUT
  5
c20
102
{ACAD_XDICTIONARY
360
f2d
102
}
102
{ACAD_REACTORS
330
c14
102
}
330
c14
100
AcDbPlotSettings
  1

  2

  4

  6

 40
0.000000
 41
0.000000
 42
0.000000
 43
0.000000
 44
0.000000
 45
0.000000
 46
0.000000
 47
0.000000
 48
0.000000
 49
0.000000
140
0.000000
141
0.000000
142
1.000000
143
1.000000
 70
  1712
 72
     0
 73
     0
 74
     0
  7

 75
    16
147
1.000000
148
0.000000
149
0.000000
100
AcDbLayout
  1
Model
 70
     1
 71
     0
 10
0.000000
 20
0.000000
 11
157.000000
 21
246.000000
 12
0.000000
 22
0.000000
 32
0.000000
 14
0.000000
 24
0.000000
 34
0.000000
 15
0.000000
 25
0.000000
 35
0.000000
146
0.000000
 13
0.000000
 23
0.000000
 33
0.000000
 16
1.000000
 26
0.000000
 36
0.000000
 17
0.000000
 27
1.000000
 37
0.000000
 76
     0
330
c20
  0
MLINESTYLE
  5
c21
102
{ACAD_REACTORS
330
c20
102
}
330
c20
100
AcDbMlineStyle
  2
STANDARD
 70
     0
  3
 
 62
   256
 51
90.000000
 52
90.000000
 71
     2
 49
0.500000
 62
   256
  6
BYLAYER
 49
-0.500000
 62
   256
  6
BYLAYER
  0
ACDBPLACEHOLDER
  5
c22
102
{ACAD_REACTORS
330
c21
102
}
330
c21
  0
DICTIONARY
  5
f29
100
AcDbDictionary
280
     1
281
     1
  3
ACAD_XREC_ROUNDTRIP
360
f2a
  0
DICTIONARY
  5
f2b
100
AcDbDictionary
280
     1
281
     1
  3
ACAD_XREC_ROUNDTRIP
360
f2c
  0
DICTIONARY
  5
f2d
100
AcDbDictionary
280
     1
281
     1
  3
ACAD_XREC_ROUNDTRIP
360
f2e
  0
XRECORD
  5
f2a
102
{ACAD_REACTORS
330
f29
102
}
330
f29
100
AcDbXrecord
280
     1
102
SHADEPLOT
 70
     0
102
SHADEPLOTRESLEVEL
 70
     2
102
SHADEPLOTCUSTOMDPI
 70
   300
  0
XRECORD
  5
f2c
102
{ACAD_REACTORS
330
f2b
102
}
330
f2b
100
AcDbXrecord
280
     1
102
SHADEPLOT
 70
     0
102
SHADEPLOTRESLEVEL
 70
     2
102
SHADEPLOTCUSTOMDPI
 70
   300
  0
XRECORD
  5
f2e
102
{ACAD_REACTORS
330
f2d
102
}
330
f2d
100
AcDbXrecord
280
     1
102
SHADEPLOT
 70
     0
102
SHADEPLOTRESLEVEL
 70
     2
102
SHADEPLOTCUSTOMDPI
 70
   300
  0
ENDSEC
  0
EOF
