  0
SECTION
  2
HEADER
  9
$ACADVER
  1
AC1018
  9
$ACADMAINTVER
 70
     0
  9
$DWGCODEPAGE
  3
ANSI_932
  9
$INSBASE
 10
0.000000
 20
0.000000
 30
0.000000
  9
$EXTMIN
 10
0.000000
 20
0.000000
 30
0.000000
  9
$EXTMAX
 10
197.060000
 20
283.060000
 30
0.000000
  9
$LIMMIN
 10
0.000000
 20
0.000000
  9
$LIMMAX
 10
197.060000
 20
283.060000
  9
$ORTHOMODE
 70
     0
  9
$REGENMODE
 70
     1
  9
$FILLMODE
 70
     1
  9
$QTEXTMODE
 70
     0
  9
$MIRRTEXT
 70
     1
  9
$LTSCALE
 40
1.000000
  9
$ATTMODE
 70
     1
  9
$TEXTSIZE
 40
2.500000
  9
$TRACEWID
 40
1.000000
  9
$TEXTSTYLE
  7
BIGFONT
  9
$CLAYER
  8
0
  9
$CELTYPE
  6
BYLAYER
  9
$CECOLOR
 62
   256
  9
$CELTSCALE
 40
1.000000
  9
$DISPSILH
 70
     0
  9
$DIMSCALE
 40
1.000000
  9
$DIMASZ
 40
2.500000
  9
$DIMEXO
 40
0.625000
  9
$DIMDLI
 40
3.750000
  9
$DIMRND
 40
0.000000
  9
$DIMDLE
 40
0.000000
  9
$DIMEXE
 40
1.250000
  9
$DIMTP
 40
0.000000
  9
$DIMTM
 40
0.000000
  9
$DIMTXT
 40
2.500000
  9
$DIMCEN
 40
2.500000
  9
$DIMTSZ
 40
0.000000
  9
$DIMTOL
 70
     0
  9
$DIMLIM
 70
     0
  9
$DIMTIH
 70
     0
  9
$DIMTOH
 70
     0
  9
$DIMSE1
 70
     0
  9
$DIMSE2
 70
     0
  9
$DIMTAD
 70
     1
  9
$DIMZIN
 70
     8
  9
$DIMBLK
  1

  9
$DIMASO
 70
     1
  9
$DIMSHO
 70
     1
  9
$DIMPOST
  1

  9
$DIMAPOST
  1

  9
$DIMALT
 70
     0
  9
$DIMALTD
 70
     4
  9
$DIMALTF
 40
0.039400
  9
$DIMLFAC
 40
1.000000
  9
$DIMTOFL
 70
     1
  9
$DIMTVP
 40
0.000000
  9
$DIMTIX
 70
     0
  9
$DIMSOXD
 70
     0
  9
$DIMSAH
 70
     0
  9
$DIMBLK1
  1

  9
$DIMBLK2
  1

  9
$DIMSTYLE
  2
STANDARD
  9
$DIMCLRD
 70
     0
  9
$DIMCLRE
 70
     0
  9
$DIMCLRT
 70
     0
  9
$DIMTFAC
 40
1.000000
  9
$DIMGAP
 40
0.625000
  9
$DIMJUST
 70
     0
  9
$DIMSD1
 70
     0
  9
$DIMSD2
 70
     0
  9
$DIMTOLJ
 70
     1
  9
$DIMTZIN
 70
     0
  9
$DIMALTZ
 70
     0
  9
$DIMALTTZ
 70
     0
  9
$DIMUPT
 70
     0
  9
$DIMDEC
 70
     4
  9
$DIMTDEC
 70
     4
  9
$DIMALTU
 70
     8
  9
$DIMALTTD
 70
     4
  9
$DIMTXSTY
  7
STANDARD
  9
$DIMAUNIT
 70
     0
  9
$DIMADEC
 70
     0
  9
$DIMALTRND
 40
0.000000
  9
$DIMAZIN
 70
     0
  9
$DIMDSEP
 70
    46
  9
$DIMATFIT
 70
     3
  9
$DIMFRAC
 70
     0
  9
$DIMLDRBLK
  1

  9
$DIMLUNIT
 70
     2
  9
$DIMLWD
 70
-2
  9
$DIMLWE
 70
-2
  9
$DIMTMOVE
 70
     0
  9
$LUNITS
 70
     2
  9
$LUPREC
 70
     4
  9
$AXISMODE
 70
     0
  9
$SKETCHINC
 40
1.000000
  9
$FILLETRAD
 40
10.000000
  9
$AUNITS
 70
     0
  9
$AUPREC
 70
     0
  9
$MENU
  1
acad
  9
$ELEVATION
 40
0.000000
  9
$PELEVATION
 40
0.000000
  9
$THICKNESS
 40
0.000000
  9
$LIMCHECK
 70
     0
  9
$BLIPMODE
 70
     0
  9
$CHAMFERA
 40
10.000000
  9
$CHAMFERB
 40
10.000000
  9
$CHAMFERC
 40
20.000000
  9
$CHAMFERD
 40
0.000000
  9
$SKPOLY
 70
     0
  9
$TDCREATE
 40
2447851.677998
  9
$TDUCREATE
 40
2447851.677998
  9
$TDUPDATE
 40
2447851.677998
  9
$TDUUPDATE
 40
2447851.677998
  9
$TDINDWG
 40
0.000000
  9
$TDUSRTIMER
 40
0.000000
  9
$USRTIMER
 70
     1
  9
$ANGBASE
 50
0.000000
  9
$ANGDIR
 70
     0
  9
$PDMODE
 70
     0
  9
$PDSIZE
 40
0.000000
  9
$PLINEWID
 40
0.000000
  9
$SPLFRAME
 70
     0
  9
$SPLINETYPE
 70
     6
  9
$SPLINESEGS
 70
     8
  9
$HANDSEED
  5
FFFFFFF
  9
$SURFTAB1
 70
     6
  9
$SURFTAB2
 70
     6
  9
$SURFTYPE
 70
     6
  9
$SURFU
 70
     6
  9
$SURFV
 70
     6
  9
$UCSBASE
  2

  9
$UCSNAME
  2

  9
$UCSORG
 10
0.000000
 20
0.000000
 30
0.000000
  9
$UCSXDIR
 10
1.000000
 20
0.000000
 30
0.000000
  9
$UCSYDIR
 10
0.000000
 20
1.000000
 30
0.000000
  9
$UCSORTHOREF
  2

  9
$UCSORTHOVIEW
 70
     0
  9
$UCSORGTOP
 10
0.000000
 20
0.000000
 30
0.000000
  9
$UCSORGBOTTOM
 10
0.000000
 20
0.000000
 30
0.000000
  9
$UCSORGLEFT
 10
0.000000
 20
0.000000
 30
0.000000
  9
$UCSORGRIGHT
 10
0.000000
 20
0.000000
 30
0.000000
  9
$UCSORGFRONT
 10
0.000000
 20
0.000000
 30
0.000000
  9
$UCSORGBACK
 10
0.000000
 20
0.000000
 30
0.000000
  9
$PUCSBASE
  2

  9
$PUCSNAME
  2

  9
$PUCSORG
 10
0.000000
 20
0.000000
 30
0.000000
  9
$PUCSXDIR
 10
1.000000
 20
0.000000
 30
0.000000
  9
$PUCSYDIR
 10
0.000000
 20
1.000000
 30
0.000000
  9
$PUCSORTHOREF
  2

  9
$PUCSORTHOVIEW
 70
     0
  9
$PUCSORGTOP
 10
0.000000
 20
0.000000
 30
0.000000
  9
$PUCSORGBOTTOM
 10
0.000000
 20
0.000000
 30
0.000000
  9
$PUCSORGLEFT
 10
0.000000
 20
0.000000
 30
0.000000
  9
$PUCSORGRIGHT
 10
0.000000
 20
0.000000
 30
0.000000
  9
$PUCSORGFRONT
 10
0.000000
 20
0.000000
 30
0.000000
  9
$PUCSORGBACK
 10
0.000000
 20
0.000000
 30
0.000000
  9
$USERI1
 70
     0
  9
$USERI2
 70
     0
  9
$USERI3
 70
     0
  9
$USERI4
 70
     0
  9
$USERI5
 70
     0
  9
$USERR1
 40
0.000000
  9
$USERR2
 40
0.000000
  9
$USERR3
 40
0.000000
  9
$USERR4
 40
0.000000
  9
$USERR5
 40
0.000000
  9
$WORLDVIEW
 70
     1
  9
$SHADEDGE
 70
     3
  9
$SHADEDIF
 70
    70
  9
$TILEMODE
 70
     1
  9
$MAXACTVP
 70
    48
  9
$PINSBASE
 10
0.000000
 20
0.000000
 30
0.000000
  9
$PLIMCHECK
 70
     0
  9
$PEXTMIN
 10
100000000000000000000.000000
 20
100000000000000000000.000000
 30
100000000000000000000.000000
  9
$PEXTMAX
 10
-100000000000000000000.000000
 20
-100000000000000000000.000000
 30
-100000000000000000000.000000
  9
$PLIMMIN
 10
0.000000
 20
0.000000
  9
$PLIMMAX
 10
197.060000
 20
283.060000
  9
$UNITMODE
 70
     0
  9
$VISRETAIN
 70
     1
  9
$PLINEGEN
 70
     0
  9
$PSLTSCALE
 70
     1
  9
$TREEDEPTH
 70
  3020
  9
$CMLSTYLE
  2
STANDARD
  9
$CMLJUST
 70
     0
  9
$CMLSCALE
 40
20.000000
  9
$PROXYGRAPHICS
 70
     1
  9
$MEASUREMENT
 70
     1
  9
$CELWEIGHT
370
-1
  9
$ENDCAPS
280
     0
  9
$JOINSTYLE
280
     0
  9
$LWDISPLAY
290
     1
  9
$INSUNITS
 70
     0
  9
$HYPERLINKBASE
  1

  9
$STYLESHEET
  1

  9
$XEDIT
290
     1
  9
$CEPSNTYPE
380
     0
  9
$PSTYLEMODE
290
     1
  9
$FINGERPRINTGUID
  2
{01801163-5BC0-459E-B9C7-2188C09ED432}
  9
$VERSIONGUID
  2
{7F326DDD-95DF-42AD-9861-A0CD9F0961F2}
  9
$EXTNAMES
290
     1
  9
$PSVPSCALE
 40
0.0
  9
$OLESTARTUP
290
     0
  9
$SORTENTS
280
   127
  9
$INDEXCTL
280
     0
  9
$HIDETEXT
280
     1
  9
$XCLIPFRAME
290
     0
  9
$HALOGAP
280
     0
  9
$OBSCOLOR
 70
   257
  9
$OBSLTYPE
280
     0
  9
$INTERSECTIONDISPLAY
280
     0
  9
$INTERSECTIONCOLOR
 70
   257
  9
$DIMASSOC
280
     2
  9
$PROJECTNAME
  1

  0
ENDSEC
  0
SECTION
  2
TABLES
  0
TABLE
  2
VPORT
  5
a2
100
AcDbSymbolTable
 70
     2
  0
VPORT
  5
a5
100
AcDbSymbolTableRecord
100
AcDbViewportTableRecord
  2
*ACTIVE
 70
     0
 10
0.000000
 20
0.000000
 11
1.000000
 21
1.000000
 12
300.000000
 22
200.000000
 13
0.000000
 23
0.000000
 14
10.000000
 24
10.000000
 15
10.000000
 25
10.000000
 16
0.000000
 26
0.000000
 36
1.000000
 17
0.000000
 27
0.000000
 37
0.000000
 40
300.000000
 41
1.600432
 42
50.000000
 43
0.000000
 44
0.000000
 50
0.000000
 51
0.000000
 71
     0
 72
   100
 73
     1
 74
     1
 75
     0
 76
     0
 77
     0
 78
     0
  0
ENDTAB
  0
TABLE
  2
LTYPE
  5
a8
100
AcDbSymbolTable
 70
    11
  0
LTYPE
  5
ab
100
AcDbSymbolTableRecord
100
AcDbLinetypeTableRecord
  2
BYBLOCK
 70
    64
  3
BYBLOCK
 72
    65
 73
     0
 40
0.000000
  0
LTYPE
  5
ae
100
AcDbSymbolTableRecord
100
AcDbLinetypeTableRecord
  2
BYLAYER
 70
    64
  3
BYLAYER
 72
    65
 73
     0
 40
0.000000
  0
LTYPE
  5
b1
100
AcDbSymbolTableRecord
100
AcDbLinetypeTableRecord
  2
CONTINUOUS
 70
    64
  3
実線
 72
    65
 73
     0
 40
0.000000
  0
LTYPE
  5
b4
100
AcDbSymbolTableRecord
100
AcDbLinetypeTableRecord
  2
DASHED
 70
    64
  3
__ __ __ __ __ __ __ __ __ __ __ __ __ __ __
 72
    65
 73
     2
 40
0.750000
 49
0.500000
 74
     0
 49
-0.250000
 74
     0
  0
LTYPE
  5
b7
100
AcDbSymbolTableRecord
100
AcDbLinetypeTableRecord
  2
HIDDEN
 70
    64
  3
_ _ _ _ _ _ _ _ _ _ _ _ _ _ _ _ _ _ _ _ _ _ _
 72
    65
 73
     2
 40
0.375000
 49
0.250000
 74
     0
 49
-0.125000
 74
     0
  0
LTYPE
  5
ba
100
AcDbSymbolTableRecord
100
AcDbLinetypeTableRecord
  2
CENTER
 70
    64
  3
____ _ ____ _ ____ _ ____ _ ____ _ ____ _ ____
 72
    65
 73
     4
 40
2.000000
 49
1.250000
 74
     0
 49
-0.250000
 74
     0
 49
0.250000
 74
     0
 49
-0.250000
 74
     0
  0
LTYPE
  5
bd
100
AcDbSymbolTableRecord
100
AcDbLinetypeTableRecord
  2
PHANTOM
 70
    64
  3
_____ _ _ _____ _ _ _____ _ _ _____ _ _ ____
 72
    65
 73
     6
 40
2.500000
 49
1.250000
 74
     0
 49
-0.250000
 74
     0
 49
0.250000
 74
     0
 49
-0.250000
 74
     0
 49
0.250000
 74
     0
 49
-0.250000
 74
     0
  0
LTYPE
  5
c0
100
AcDbSymbolTableRecord
100
AcDbLinetypeTableRecord
  2
DOT
 70
    64
  3
...............................................
 72
    65
 73
     2
 40
0.250000
 49
0.000000
 74
     0
 49
-0.250000
 74
     0
  0
LTYPE
  5
c3
100
AcDbSymbolTableRecord
100
AcDbLinetypeTableRecord
  2
DASHDOT
 70
    64
  3
__ . __ . __ . __ . __ . __ . __ . __ . __ . __
 72
    65
 73
     4
 40
1.000000
 49
0.500000
 74
     0
 49
-0.250000
 74
     0
 49
0.000000
 74
     0
 49
-0.250000
 74
     0
  0
LTYPE
  5
c6
100
AcDbSymbolTableRecord
100
AcDbLinetypeTableRecord
  2
BORDER
 70
    64
  3
__ __ . __ __ . __ __ . __ __ . __ __ . __ __
 72
    65
 73
     6
 40
1.750000
 49
0.500000
 74
     0
 49
-0.250000
 74
     0
 49
0.500000
 74
     0
 49
-0.250000
 74
     0
 49
0.000000
 74
     0
 49
-0.250000
 74
     0
  0
LTYPE
  5
c9
100
AcDbSymbolTableRecord
100
AcDbLinetypeTableRecord
  2
DIVIDE
 70
    64
  3
__ . . __ . . __ . . __ . . __ . . __ . . __
 72
    65
 73
     6
 40
1.250000
 49
0.500000
 74
     0
 49
-0.250000
 74
     0
 49
0.000000
 74
     0
 49
-0.250000
 74
     0
 49
0.000000
 74
     0
 49
-0.250000
 74
     0
  0
ENDTAB
  0
TABLE
  2
LAYER
  5
cc
100
AcDbSymbolTable
 70
     2
  0
LAYER
  5
cf
100
AcDbSymbolTableRecord
100
AcDbLayerTableRecord
  2
0
 70
     0
 62
     7
  6
CONTINUOUS
370
 65533
390
	F
  0
LAYER
  5
d2
100
AcDbSymbolTableRecord
100
AcDbLayerTableRecord
  2
B
 70
     0
 62
     7
  6
CONTINUOUS
370
 65533
390
	F
  0
LAYER
  5
d5
100
AcDbSymbolTableRecord
100
AcDbLayerTableRecord
  2
C
 70
     0
 62
     7
  6
CONTINUOUS
370
 65533
390
	F
  0
LAYER
  5
d8
100
AcDbSymbolTableRecord
100
AcDbLayerTableRecord
  2
D
 70
     0
 62
     7
  6
CONTINUOUS
370
 65533
390
	F
  0
LAYER
  5
db
100
AcDbSymbolTableRecord
100
AcDbLayerTableRecord
  2
E
 70
     0
 62
     7
  6
CONTINUOUS
370
 65533
390
	F
  0
LAYER
  5
de
100
AcDbSymbolTableRecord
100
AcDbLayerTableRecord
  2
F
 70
     0
 62
     7
  6
CONTINUOUS
370
 65533
390
	F
  0
LAYER
  5
e1
100
AcDbSymbolTableRecord
100
AcDbLayerTableRecord
  2
G
 70
     0
 62
     7
  6
CONTINUOUS
370
 65533
390
	F
  0
LAYER
  5
e4
100
AcDbSymbolTableRecord
100
AcDbLayerTableRecord
  2
H
 70
     0
 62
     7
  6
CONTINUOUS
370
 65533
390
	F
  0
LAYER
  5
e7
100
AcDbSymbolTableRecord
100
AcDbLayerTableRecord
  2
I
 70
     0
 62
     7
  6
CONTINUOUS
370
 65533
390
	F
  0
LAYER
  5
ea
100
AcDbSymbolTableRecord
100
AcDbLayerTableRecord
  2
J
 70
     0
 62
     7
  6
CONTINUOUS
370
 65533
390
	F
  0
LAYER
  5
ed
100
AcDbSymbolTableRecord
100
AcDbLayerTableRecord
  2
K
 70
     0
 62
     7
  6
CONTINUOUS
370
 65533
390
	F
  0
LAYER
  5
f0
100
AcDbSymbolTableRecord
100
AcDbLayerTableRecord
  2
L
 70
     0
 62
     7
  6
CONTINUOUS
370
 65533
390
	F
  0
LAYER
  5
f3
100
AcDbSymbolTableRecord
100
AcDbLayerTableRecord
  2
M
 70
     0
 62
     7
  6
CONTINUOUS
370
 65533
390
	F
  0
LAYER
  5
f6
100
AcDbSymbolTableRecord
100
AcDbLayerTableRecord
  2
N
 70
     0
 62
     7
  6
CONTINUOUS
370
 65533
390
	F
  0
ENDTAB
  0
TABLE
  2
STYLE
  5
f9
100
AcDbSymbolTable
 70
     2
  0
STYLE
  5
fc
100
AcDbSymbolTableRecord
100
AcDbTextStyleTableRecord
  2
STANDARD
 70
     0
 40
0.000000
 41
0.500000
 50
0.000000
 71
     0
 42
0.300000
  3
txt
  4

  0
STYLE
  5
ff
100
AcDbSymbolTableRecord
100
AcDbTextStyleTableRecord
  2
BIGFONT
 70
    64
 40
0.000000
 41
1.000000
 50
0.000000
 71
     0
 42
0.200000
  3

  4
bigfont
  0
ENDTAB
  0
TABLE
  2
VIEW
  5
102
100
AcDbSymbolTable
 70
     0
  0
ENDTAB
  0
TABLE
  2
UCS
  5
105
100
AcDbSymbolTable
 70
     0
  0
ENDTAB
  0
TABLE
  2
APPID
  5
108
100
AcDbSymbolTable
 70
     3
  0
APPID
  5
10b
100
AcDbSymbolTableRecord
100
AcDbRegAppTableRecord
  2
ACAD
 70
     0
  0
APPID
  5
10e
100
AcDbSymbolTableRecord
100
AcDbRegAppTableRecord
  2
CONTENTTABDATA
 70
     0
  0
APPID
  5
111
100
AcDbSymbolTableRecord
100
AcDbRegAppTableRecord
  2
CONTENTCURRENTTAB
 70
     0
  0
ENDTAB
  0
TABLE
  2
DIMSTYLE
  5
114
330
     0
100
AcDbSymbolTable
 70
     2
100
AcDbDimStyleTable
 70
     1
  0
DIMSTYLE
105
117
100
AcDbSymbolTableRecord
100
AcDbDimStyleTableRecord
  2
STANDARD
 70
     0
  3

  4

  5

  6

  7

 40
1.000000
 41
0.180000
 42
0.062500
 43
0.380000
 44
0.180000
 45
0.000000
 46
0.000000
 47
0.000000
 48
0.000000
140
0.180000
141
0.090000
142
0.000000
143
25.400000
144
1.000000
145
0.000000
146
1.000000
147
0.090000
 71
     0
 72
     0
 73
     1
 74
     1
 75
     0
 76
     0
 77
     0
 78
     0
170
     0
171
     2
172
     0
173
     0
174
     0
175
     0
176
     0
177
     0
178
     0
270
     2
271
     4
272
     4
273
     2
274
     2
340
fc
275
     0
280
     0
281
     0
282
     0
283
     1
284
     0
285
     0
286
     0
287
     3
288
     0
  0
ENDTAB
  0
TABLE
  2
BLOCK_RECORD
  5
11a
100
AcDbSymbolTable
 70
     0
  0
BLOCK_RECORD
  5
11d
100
AcDbSymbolTableRecord
100
AcDbBlockTableRecord
  2
*MODEL_SPACE
  0
BLOCK_RECORD
  5
120
100
AcDbSymbolTableRecord
100
AcDbBlockTableRecord
  2
*PAPER_SPACE
  0
ENDTAB
  0
ENDSEC
  0
SECTION
  2
BLOCKS
  0
BLOCK
  5
123
330
124
100
AcDbEntity
  8
0
100
AcDbBlockBegin
  2
*Model_Space
 70
     0
 10
0.000000
 20
0.000000
 30
0.000000
  3
*Model_Space
  1
 
  0
ENDBLK
  5
126
330
124
100
AcDbEntity
  8
0
100
AcDbBlockEnd
  0
BLOCK
  5
129
330
12a
100
AcDbEntity
 67
     1
  8
0
100
AcDbBlockBegin
  2
*Paper_Space
 70
     0
 10
0.000000
 20
0.000000
 30
0.000000
  3
*Paper_Space
  1
 
  0
ENDBLK
  5
12c
330
12d
100
AcDbEntity
 67
     1
  8
0
100
AcDbBlockEnd
  0
ENDSEC
  0
SECTION
  2
ENTITIES
  0
LINE
  5
12f
100
AcDbEntity
  8
0
370
    20
100
AcDbLine
 10
35.075000
 20
197.235000
 11
19.275000
 21
192.460000
  0
LINE
  5
132
100
AcDbEntity
  8
0
370
    20
100
AcDbLine
 10
36.475000
 20
135.110000
 11
35.200000
 21
135.110000
  0
LINE
  5
135
100
AcDbEntity
  8
0
370
    20
100
AcDbLine
 10
36.475000
 20
161.185000
 11
35.200000
 21
161.185000
  0
LINE
  5
138
100
AcDbEntity
  8
0
370
    20
100
AcDbLine
 10
37.225000
 20
161.185000
 11
58.475000
 21
161.185000
  0
LINE
  5
13b
100
AcDbEntity
  8
0
370
    20
100
AcDbLine
 10
27.675000
 20
170.410000
 11
29.575000
 21
171.685000
  0
LINE
  5
13e
100
AcDbEntity
  8
0
370
    20
100
AcDbLine
 10
29.575000
 20
171.685000
 11
31.800000
 21
170.410000
  0
LINE
  5
141
100
AcDbEntity
  8
0
370
    20
100
AcDbLine
 10
31.800000
 20
170.410000
 11
33.700000
 21
171.685000
  0
LINE
  5
144
100
AcDbEntity
  8
0
370
    20
100
AcDbLine
 10
33.700000
 20
171.685000
 11
35.925000
 21
170.410000
  0
LINE
  5
147
100
AcDbEntity
  8
0
370
    20
100
AcDbLine
 10
35.925000
 20
170.410000
 11
37.825000
 21
171.685000
  0
LINE
  5
14a
100
AcDbEntity
  8
0
370
    20
100
AcDbLine
 10
37.825000
 20
171.685000
 11
39.725000
 21
170.410000
  0
LINE
  5
14d
100
AcDbEntity
  8
0
370
    20
100
AcDbLine
 10
39.725000
 20
170.410000
 11
41.950000
 21
171.685000
  0
LINE
  5
150
100
AcDbEntity
  8
0
370
    20
100
AcDbLine
 10
41.950000
 20
171.685000
 11
43.850000
 21
170.410000
  0
LINE
  5
153
100
AcDbEntity
  8
0
370
    20
100
AcDbLine
 10
43.850000
 20
170.410000
 11
46.075000
 21
171.685000
  0
LINE
  5
156
100
AcDbEntity
  8
0
370
    20
100
AcDbLine
 10
46.075000
 20
171.685000
 11
47.975000
 21
170.410000
  0
LINE
  5
159
100
AcDbEntity
  8
0
370
    20
100
AcDbLine
 10
27.675000
 20
169.135000
 11
29.575000
 21
170.410000
  0
LINE
  5
15c
100
AcDbEntity
  8
0
370
    20
100
AcDbLine
 10
29.575000
 20
170.410000
 11
31.800000
 21
169.135000
  0
LINE
  5
15f
100
AcDbEntity
  8
0
370
    20
100
AcDbLine
 10
31.800000
 20
169.135000
 11
33.700000
 21
170.410000
  0
LINE
  5
162
100
AcDbEntity
  8
0
370
    20
100
AcDbLine
 10
33.700000
 20
170.410000
 11
35.925000
 21
169.135000
  0
LINE
  5
165
100
AcDbEntity
  8
0
370
    20
100
AcDbLine
 10
35.925000
 20
169.135000
 11
37.825000
 21
170.410000
  0
LINE
  5
168
100
AcDbEntity
  8
0
370
    20
100
AcDbLine
 10
37.825000
 20
170.410000
 11
39.725000
 21
169.135000
  0
LINE
  5
16b
100
AcDbEntity
  8
0
370
    20
100
AcDbLine
 10
39.725000
 20
169.135000
 11
41.950000
 21
170.410000
  0
LINE
  5
16e
100
AcDbEntity
  8
0
370
    20
100
AcDbLine
 10
41.950000
 20
170.410000
 11
43.850000
 21
169.135000
  0
LINE
  5
171
100
AcDbEntity
  8
0
370
    20
100
AcDbLine
 10
43.850000
 20
169.135000
 11
46.075000
 21
170.410000
  0
LINE
  5
174
100
AcDbEntity
  8
0
370
    20
100
AcDbLine
 10
46.075000
 20
170.410000
 11
47.975000
 21
169.135000
  0
LINE
  5
177
100
AcDbEntity
  8
0
370
    20
100
AcDbLine
 10
35.200000
 20
169.585000
 11
35.200000
 21
134.985000
  0
LINE
  5
17a
100
AcDbEntity
  8
0
370
    20
100
AcDbLine
 10
36.475000
 20
169.585000
 11
36.475000
 21
134.985000
  0
LINE
  5
17d
100
AcDbEntity
  8
0
370
    20
100
AcDbLine
 10
20.175000
 20
191.760000
 11
20.800000
 21
192.960000
  0
LINE
  5
180
100
AcDbEntity
  8
0
370
    20
100
AcDbLine
 10
21.075000
 20
192.035000
 11
21.725000
 21
193.235000
  0
LINE
  5
183
100
AcDbEntity
  8
0
370
    20
100
AcDbLine
 10
22.000000
 20
192.285000
 11
21.200000
 21
192.710000
  0
LINE
  5
186
100
AcDbEntity
  8
0
370
    20
100
AcDbLine
 10
22.300000
 20
192.410000
 11
22.950000
 21
193.585000
  0
LINE
  5
189
100
AcDbEntity
  8
0
370
    20
100
AcDbLine
 10
23.200000
 20
192.685000
 11
23.850000
 21
193.860000
  0
LINE
  5
18c
100
AcDbEntity
  8
0
370
    20
100
AcDbLine
 10
24.100000
 20
192.935000
 11
23.325000
 21
193.360000
  0
LINE
  5
18f
100
AcDbEntity
  8
0
370
    20
100
AcDbLine
 10
24.400000
 20
193.035000
 11
25.025000
 21
194.235000
  0
LINE
  5
192
100
AcDbEntity
  8
0
370
    20
100
AcDbLine
 10
25.300000
 20
193.310000
 11
25.975000
 21
194.510000
  0
LINE
  5
195
100
AcDbEntity
  8
0
370
    20
100
AcDbLine
 10
26.250000
 20
193.610000
 11
25.425000
 21
193.985000
  0
LINE
  5
198
100
AcDbEntity
  8
0
370
    20
100
AcDbLine
 10
26.250000
 20
193.610000
 11
26.875000
 21
194.760000
  0
LINE
  5
19b
100
AcDbEntity
  8
0
370
    20
100
AcDbLine
 10
27.150000
 20
193.860000
 11
27.800000
 21
195.035000
  0
LINE
  5
19e
100
AcDbEntity
  8
0
370
    20
100
AcDbLine
 10
28.050000
 20
194.135000
 11
27.250000
 21
194.560000
  0
LINE
  5
1a1
100
AcDbEntity
  8
0
370
    20
100
AcDbLine
 10
28.350000
 20
194.210000
 11
28.975000
 21
195.410000
  0
LINE
  5
1a4
100
AcDbEntity
  8
0
370
    20
100
AcDbLine
 10
29.250000
 20
194.485000
 11
29.900000
 21
195.685000
  0
LINE
  5
1a7
100
AcDbEntity
  8
0
370
    20
100
AcDbLine
 10
30.175000
 20
194.760000
 11
29.375000
 21
195.185000
  0
LINE
  5
1aa
100
AcDbEntity
  8
0
370
    20
100
AcDbLine
 10
30.175000
 20
194.760000
 11
30.825000
 21
195.960000
  0
LINE
  5
1ad
100
AcDbEntity
  8
0
370
    20
100
AcDbLine
 10
31.100000
 20
195.060000
 11
31.725000
 21
196.235000
  0
LINE
  5
1b0
100
AcDbEntity
  8
0
370
    20
100
AcDbLine
 10
32.000000
 20
195.335000
 11
31.200000
 21
195.760000
  0
LINE
  5
1b3
100
AcDbEntity
  8
0
370
    20
100
AcDbLine
 10
32.300000
 20
195.410000
 11
32.925000
 21
196.610000
  0
LINE
  5
1b6
100
AcDbEntity
  8
0
370
    20
100
AcDbLine
 10
33.200000
 20
195.685000
 11
33.850000
 21
196.885000
  0
LINE
  5
1b9
100
AcDbEntity
  8
0
370
    20
100
AcDbLine
 10
34.125000
 20
195.960000
 11
33.350000
 21
196.385000
  0
LINE
  5
1bc
100
AcDbEntity
  8
0
370
    20
100
AcDbLine
 10
34.450000
 20
196.060000
 11
35.075000
 21
197.235000
  0
MTEXT
  5
1bf
100
AcDbEntity
  8
0
100
AcDbMText
 10
16.350000
 20
125.435000
 40
1.856250
 41
20.047500
 71
     1
 72
     5
  1
\fＭＳ ゴシック|b0|i0|c128|p49;\T1.8854;(単位;mm)
 44
1.226497
 73
     1
  7
BIGFONT
  0
MTEXT
  5
1c2
100
AcDbEntity
  8
0
100
AcDbMText
 10
76.125000
 20
250.185000
 40
2.381250
 41
54.292500
 71
     1
 72
     5
  1
\fＭＳ ゴシック|b0|i0|c128|p49;\T1.2282;② ノッキングヘッド
 44
1.117166
 73
     1
  7
BIGFONT
  0
MTEXT
  5
1c5
100
AcDbEntity
  8
0
100
AcDbMText
 10
76.125000
 20
241.535000
 40
2.381250
 41
48.577500
 71
     1
 72
     5
  1
\fＭＳ ゴシック|b0|i0|c128|p49;\T1.2282;③ 貫入先端コーン
 44
1.117166
 73
     1
  7
BIGFONT
  0
LWPOLYLINE
  5
1c8
100
AcDbEntity
  8
0
100
AcDbPolyline
 90
     4
 70
     1
 43
0.400000
 10
77.425000
 20
182.260000
 10
77.425000
 20
175.285000
 10
81.550000
 20
175.285000
 10
81.550000
 20
182.260000
  0
LINE
  5
1d3
100
AcDbEntity
  8
0
  6
DOT
 62
     7
370
    20
100
AcDbLine
 10
78.075000
 20
182.260000
 11
78.075000
 21
175.285000
  0
LINE
  5
1d6
100
AcDbEntity
  8
0
  6
DOT
 62
     7
370
    20
100
AcDbLine
 10
80.925000
 20
182.260000
 11
80.925000
 21
175.285000
  0
MTEXT
  5
1d9
100
AcDbEntity
  8
0
100
AcDbMText
 10
88.675000
 20
-584.540000
 40
2.475000
 41
4.455000
 71
     1
 72
     5
  1
\fＭＳ ゴシック|b0|i0|c128|p49;\T0.9100;20
 44
0.987879
 73
     1
 11
0.0000000000000000
 21
1.000000
 31
0.000000
  7
BIGFONT
  0
LINE
  5
1dc
100
AcDbEntity
  8
0
370
    20
100
AcDbLine
 10
82.500000
 20
182.260000
 11
94.400000
 21
182.260000
  0
LINE
  5
1df
100
AcDbEntity
  8
0
370
    20
100
AcDbLine
 10
83.150000
 20
175.285000
 11
94.400000
 21
175.285000
  0
LINE
  5
1e2
100
AcDbEntity
  8
0
370
    20
100
AcDbLine
 10
92.650000
 20
175.285000
 11
92.650000
 21
182.260000
  0
LWPOLYLINE
  5
1e5
100
AcDbEntity
  8
0
100
AcDbPolyline
 90
     3
 70
     0
 43
0.200000
 10
91.700000
 20
176.860000
 10
92.650000
 20
175.285000
 10
93.625000
 20
176.860000
  0
LWPOLYLINE
  5
1ee
100
AcDbEntity
  8
0
100
AcDbPolyline
 90
     3
 70
     0
 43
0.200000
 10
93.625000
 20
180.660000
 10
92.650000
 20
182.260000
 10
91.700000
 20
180.660000
  0
MTEXT
  5
1f7
100
AcDbEntity
  8
0
100
AcDbMText
 10
76.650000
 20
191.885000
 40
2.475000
 41
8.910000
 71
     1
 72
     5
  1
\fＭＳ ゴシック|b0|i0|c128|p49;\T1.0200;φ16
 44
0.987879
 73
     1
  7
BIGFONT
  0
LINE
  5
1fa
100
AcDbEntity
  8
0
370
    20
100
AcDbLine
 10
72.350000
 20
186.060000
 11
76.800000
 21
186.060000
  0
LWPOLYLINE
  5
1fd
100
AcDbEntity
  8
0
100
AcDbPolyline
 90
     3
 70
     0
 43
0.200000
 10
75.200000
 20
185.110000
 10
76.800000
 20
186.060000
 10
75.200000
 20
187.010000
  0
LINE
  5
206
100
AcDbEntity
  8
0
370
    20
100
AcDbLine
 10
82.200000
 20
186.060000
 11
86.625000
 21
186.060000
  0
LWPOLYLINE
  5
209
100
AcDbEntity
  8
0
100
AcDbPolyline
 90
     3
 70
     0
 43
0.200000
 10
83.775000
 20
187.010000
 10
82.200000
 20
186.060000
 10
83.775000
 20
185.110000
  0
LINE
  5
212
100
AcDbEntity
  8
0
370
    20
100
AcDbLine
 10
76.800000
 20
175.285000
 11
76.800000
 21
188.610000
  0
LINE
  5
215
100
AcDbEntity
  8
0
370
    20
100
AcDbLine
 10
82.200000
 20
175.285000
 11
82.200000
 21
188.610000
  0
MTEXT
  5
218
100
AcDbEntity
  8
0
100
AcDbMText
 10
76.125000
 20
262.610000
 40
2.381250
 41
77.152500
 71
     1
 72
     5
  1
\fＭＳ ゴシック|b0|i0|c128|p49;\T1.2282;① ロッド(φ16mm、長さ430mm)
 44
1.117166
 73
     1
  7
BIGFONT
  0
MTEXT
  5
21b
100
AcDbEntity
  8
0
100
AcDbMText
 10
93.425000
 20
197.485000
 40
1.856250
 41
20.047500
 71
     1
 72
     5
  1
\fＭＳ ゴシック|b0|i0|c128|p49;\T1.8854;(単位;mm)
 44
1.226497
 73
     1
  7
BIGFONT
  0
MTEXT
  5
21e
100
AcDbEntity
  8
0
100
AcDbMText
 10
106.450000
 20
241.910000
 40
2.381250
 41
34.290000
 71
     1
 72
     5
  1
\fＭＳ ゴシック|b0|i0|c128|p49;\T1.2282;（下図参照）
 44
1.117166
 73
     1
  7
BIGFONT
  0
LINE
  5
221
100
AcDbEntity
  8
0
370
    20
100
AcDbLine
 10
47.975000
 20
170.410000
 11
48.925000
 21
171.360000
  0
LINE
  5
224
100
AcDbEntity
  8
0
370
    20
100
AcDbLine
 10
47.975000
 20
169.135000
 11
48.925000
 21
170.085000
  0
LWPOLYLINE
  5
227
100
AcDbEntity
  8
0
100
AcDbPolyline
 90
     4
 70
     1
 43
0.200000
 10
35.225000
 20
208.710000
 10
36.475000
 20
208.710000
 10
36.475000
 20
205.485000
 10
35.225000
 20
205.485000
  0
LINE
  5
232
100
AcDbEntity
  8
0
370
    20
100
AcDbLine
 10
34.800000
 20
210.585000
 11
36.875000
 21
210.585000
  0
LINE
  5
235
100
AcDbEntity
  8
0
370
    20
100
AcDbLine
 10
36.900000
 20
210.585000
 11
36.500000
 21
208.785000
  0
LINE
  5
238
100
AcDbEntity
  8
0
370
    20
100
AcDbLine
 10
34.800000
 20
210.585000
 11
35.225000
 21
208.710000
  0
LWPOLYLINE
  5
23b
100
AcDbEntity
  8
0
100
AcDbPolyline
 90
     4
 70
     0
 43
0.200000
 10
34.800000
 20
210.585000
 10
34.800000
 20
211.535000
 10
36.875000
 20
211.535000
 10
36.875000
 20
210.585000
  0
LWPOLYLINE
  5
246
100
AcDbEntity
  8
0
100
AcDbPolyline
 90
     4
 70
     1
 43
0.200000
 10
34.050000
 20
242.810000
 10
37.800000
 20
242.810000
 10
37.800000
 20
240.835000
 10
34.050000
 20
240.835000
  0
LWPOLYLINE
  5
251
100
AcDbEntity
  8
0
100
AcDbPolyline
 90
     4
 70
     1
 43
0.200000
 10
34.050000
 20
251.560000
 10
37.800000
 20
251.560000
 10
37.800000
 20
249.585000
 10
34.050000
 20
249.585000
  0
ELLIPSE
  5
25c
100
AcDbEntity
  8
0
370
    20
100
AcDbEllipse
 10
33.625000
 20
246.185000
 30
0.000000
 11
0.00000000000000
 21
3.850000
 31
0.000000
210
0.000000
220
0.000000
230
1.000000
 40
0.214286
 41
3.672350
 42
5.752428
  0
ELLIPSE
  5
25f
100
AcDbEntity
  8
0
370
    20
100
AcDbEllipse
 10
38.400000
 20
246.135000
 30
0.000000
 11
0.00000000000000
 21
3.900000
 31
0.000000
210
0.000000
220
0.000000
230
1.000000
 40
0.301282
 41
0.515418
 42
2.626175
  0
HATCH
  5
262
330
F6
100
AcDbEntity
  8
0
100
AcDbHatch
 10
0.0
 20
0.0
 30
0.0
210
0.0
220
0.0
230
1.0
  2
SOLID
 70
     1
 71
     0
 91
     1
 92
     7
 72
     0
 73
     1
 93
    17
 10
34.125000
 20
249.460000
 10
37.725000
 20
249.460000
 10
37.250000
 20
248.260000
 10
37.100000
 20
247.135000
 10
37.150000
 20
245.210000
 10
37.175000
 20
244.560000
 10
37.375000
 20
243.585000
 10
37.700000
 20
242.910000
 10
34.175000
 20
242.910000
 10
34.400000
 20
244.085000
 10
34.525000
 20
244.785000
 10
34.575000
 20
245.260000
 10
34.575000
 20
247.285000
 10
34.475000
 20
248.185000
 10
34.375000
 20
248.835000
 10
34.125000
 20
249.435000
 10
34.175000
 20
249.435000
 97
     1
330
265
 75
     0
 76
     1
 47
0.651316
 98
     1
 10
0.0
 20
0.0
  0
LWPOLYLINE
  5
265
330
F6
100
AcDbEntity
  8
0
100
AcDbPolyline
 90
    17
 70
     1
 43
0.200000
 10
34.125000
 20
249.460000
 10
37.725000
 20
249.460000
 10
37.250000
 20
248.260000
 10
37.100000
 20
247.135000
 10
37.150000
 20
245.210000
 10
37.175000
 20
244.560000
 10
37.375000
 20
243.585000
 10
37.700000
 20
242.910000
 10
34.175000
 20
242.910000
 10
34.400000
 20
244.085000
 10
34.525000
 20
244.785000
 10
34.575000
 20
245.260000
 10
34.575000
 20
247.285000
 10
34.475000
 20
248.185000
 10
34.375000
 20
248.835000
 10
34.125000
 20
249.435000
 10
34.175000
 20
249.435000
  0
LINE
  5
28a
100
AcDbEntity
  8
0
  6
DOT
 62
     7
370
    20
100
AcDbLine
 10
35.225000
 20
251.160000
 11
35.225000
 21
241.260000
  0
LINE
  5
28d
100
AcDbEntity
  8
0
  6
DOT
 62
     7
370
    20
100
AcDbLine
 10
36.325000
 20
251.160000
 11
36.325000
 21
241.360000
  0
LWPOLYLINE
  5
290
100
AcDbEntity
  8
0
100
AcDbPolyline
 90
     4
 70
     0
 43
0.200000
 10
35.325000
 20
211.460000
 10
35.325000
 20
240.835000
 10
36.425000
 20
240.835000
 10
36.425000
 20
211.460000
  0
LWPOLYLINE
  5
29b
100
AcDbEntity
  8
0
100
AcDbPolyline
 90
     4
 70
     1
 43
0.200000
 10
35.225000
 20
261.060000
 10
36.375000
 20
261.060000
 10
36.375000
 20
251.585000
 10
35.225000
 20
251.585000
  0
LINE
  5
2a6
100
AcDbEntity
  8
0
370
    20
100
AcDbLine
 10
37.200000
 20
261.160000
 11
58.775000
 21
261.160000
  0
LINE
  5
2a9
100
AcDbEntity
  8
0
370
    20
100
AcDbLine
 10
38.450000
 20
240.835000
 11
59.400000
 21
240.835000
  0
LINE
  5
2ac
100
AcDbEntity
  8
0
370
    20
100
AcDbLine
 10
37.825000
 20
211.460000
 11
59.400000
 21
211.460000
  0
LINE
  5
2af
100
AcDbEntity
  8
0
370
    20
100
AcDbLine
 10
37.825000
 20
205.535000
 11
60.025000
 21
205.535000
  0
LINE
  5
2b2
100
AcDbEntity
  8
0
370
    20
100
AcDbLine
 10
56.575000
 20
261.160000
 11
56.575000
 21
240.835000
  0
LWPOLYLINE
  5
2b5
100
AcDbEntity
  8
0
100
AcDbPolyline
 90
     3
 70
     0
 43
0.200000
 10
57.325000
 20
259.335000
 10
56.575000
 20
261.160000
 10
55.800000
 20
259.335000
  0
LWPOLYLINE
  5
2be
100
AcDbEntity
  8
0
100
AcDbPolyline
 90
     3
 70
     0
 43
0.200000
 10
55.800000
 20
242.685000
 10
56.575000
 20
240.835000
 10
57.325000
 20
242.685000
  0
LINE
  5
2c7
100
AcDbEntity
  8
0
370
    20
100
AcDbLine
 10
56.575000
 20
240.835000
 11
56.575000
 21
211.460000
  0
LWPOLYLINE
  5
2ca
100
AcDbEntity
  8
0
100
AcDbPolyline
 90
     3
 70
     0
 43
0.200000
 10
57.325000
 20
239.010000
 10
56.575000
 20
240.835000
 10
55.800000
 20
239.010000
  0
LWPOLYLINE
  5
2d3
100
AcDbEntity
  8
0
100
AcDbPolyline
 90
     3
 70
     0
 43
0.200000
 10
55.800000
 20
213.310000
 10
56.575000
 20
211.460000
 10
57.325000
 20
213.310000
  0
LWPOLYLINE
  5
2dc
100
AcDbEntity
  8
0
100
AcDbPolyline
 90
     4
 70
     1
 43
0.200000
 10
35.250000
 20
134.985000
 10
36.500000
 20
134.985000
 10
36.500000
 20
132.485000
 10
35.250000
 20
132.485000
  0
LINE
  5
2e7
100
AcDbEntity
  8
0
370
    20
100
AcDbLine
 10
35.175000
 20
132.485000
 11
34.850000
 21
131.310000
  0
LINE
  5
2ea
100
AcDbEntity
  8
0
370
    20
100
AcDbLine
 10
34.850000
 20
131.310000
 11
36.900000
 21
131.310000
  0
LINE
  5
2ed
100
AcDbEntity
  8
0
370
    20
100
AcDbLine
 10
36.900000
 20
131.385000
 11
36.500000
 21
132.410000
  0
LINE
  5
2f0
100
AcDbEntity
  8
0
370
    20
100
AcDbLine
 10
36.900000
 20
131.385000
 11
35.950000
 21
129.835000
  0
LINE
  5
2f3
100
AcDbEntity
  8
0
370
    20
100
AcDbLine
 10
35.950000
 20
129.760000
 11
34.925000
 21
131.385000
  0
LINE
  5
2f6
100
AcDbEntity
  8
0
370
    20
100
AcDbLine
 10
60.325000
 20
135.210000
 11
37.200000
 21
135.210000
  0
LINE
  5
2f9
100
AcDbEntity
  8
0
370
    20
100
AcDbLine
 10
60.650000
 20
129.585000
 11
37.200000
 21
129.585000
  0
LINE
  5
2fc
100
AcDbEntity
  8
0
370
    20
100
AcDbLine
 10
57.050000
 20
135.060000
 11
57.050000
 21
129.435000
  0
LWPOLYLINE
  5
2ff
100
AcDbEntity
  8
0
100
AcDbPolyline
 90
     3
 70
     0
 43
0.200000
 10
57.800000
 20
133.235000
 10
57.050000
 20
135.060000
 10
56.275000
 20
133.235000
  0
LWPOLYLINE
  5
308
100
AcDbEntity
  8
0
100
AcDbPolyline
 90
     3
 70
     0
 43
0.200000
 10
56.275000
 20
131.285000
 10
57.050000
 20
129.435000
 10
57.800000
 20
131.285000
  0
MTEXT
  5
311
100
AcDbEntity
  8
0
100
AcDbMText
 10
57.000000
 20
252.485000
 40
2.850000
 41
7.695000
 71
     1
 72
     5
  1
\fＭＳ Ｐ明朝|b0|i0|c128|p18;\H2.85;\T0.9100;05\T0.9930;3
 44
0.633515
 73
     1
 11
-0.000000000000000
 21
-1.000000
 31
0.000000
  7
BIGFONT
  0
MTEXT
  5
314
100
AcDbEntity
  8
0
100
AcDbMText
 10
57.325000
 20
229.385000
 40
2.850000
 41
7.695000
 71
     1
 72
     5
  1
\fＭＳ Ｐ明朝|b0|i0|c128|p18;\H2.85;\T0.9100;00\T0.9930;5
 44
0.633515
 73
     1
 11
-0.000000000000000
 21
-1.000000
 31
0.000000
  7
BIGFONT
  0
MTEXT
  5
317
100
AcDbEntity
  8
0
100
AcDbMText
 10
57.650000
 20
190.635000
 40
2.850000
 41
7.695000
 71
     1
 72
     5
  1
\fＭＳ Ｐ明朝|b0|i0|c128|p18;\H2.85;\T0.9100;00\T0.9930;5
 44
0.633515
 73
     1
 11
-0.000000000000000
 21
-1.000000
 31
0.000000
  7
BIGFONT
  0
LINE
  5
31a
100
AcDbEntity
  8
0
370
    20
100
AcDbLine
 10
35.175000
 20
174.460000
 11
35.175000
 21
170.685000
  0
LINE
  5
31d
100
AcDbEntity
  8
0
370
    20
100
AcDbLine
 10
56.900000
 20
205.535000
 11
56.900000
 21
174.285000
  0
LWPOLYLINE
  5
320
100
AcDbEntity
  8
0
100
AcDbPolyline
 90
     3
 70
     0
 43
0.200000
 10
57.650000
 20
203.710000
 10
56.900000
 20
205.535000
 10
56.125000
 20
203.710000
  0
LWPOLYLINE
  5
329
100
AcDbEntity
  8
0
100
AcDbPolyline
 90
     3
 70
     0
 43
0.200000
 10
56.125000
 20
176.135000
 10
56.900000
 20
174.285000
 10
57.650000
 20
176.135000
  0
LINE
  5
332
100
AcDbEntity
  8
0
370
    20
100
AcDbLine
 10
37.200000
 20
174.285000
 11
60.025000
 21
174.285000
  0
LINE
  5
335
100
AcDbEntity
  8
0
370
    20
100
AcDbLine
 10
36.425000
 20
174.210000
 11
36.425000
 21
170.735000
  0
LINE
  5
338
100
AcDbEntity
  8
0
370
    20
100
AcDbLine
 10
57.675000
 20
161.160000
 11
60.100000
 21
161.160000
  0
LINE
  5
33b
100
AcDbEntity
  8
0
370
    20
100
AcDbLine
 10
56.900000
 20
160.835000
 11
56.900000
 21
135.210000
  0
LWPOLYLINE
  5
33e
100
AcDbEntity
  8
0
100
AcDbPolyline
 90
     3
 70
     0
 43
0.200000
 10
57.650000
 20
159.010000
 10
56.900000
 20
160.835000
 10
56.125000
 20
159.010000
  0
LWPOLYLINE
  5
347
100
AcDbEntity
  8
0
100
AcDbPolyline
 90
     3
 70
     0
 43
0.200000
 10
56.125000
 20
137.060000
 10
56.900000
 20
135.210000
 10
57.650000
 20
137.060000
  0
LINE
  5
350
100
AcDbEntity
  8
0
370
    20
100
AcDbLine
 10
35.150000
 20
174.260000
 11
36.500000
 21
174.260000
  0
MTEXT
  5
353
100
AcDbEntity
  8
0
100
AcDbMText
 10
57.650000
 20
149.685000
 40
2.850000
 41
7.695000
 71
     1
 72
     5
  1
\fＭＳ Ｐ明朝|b0|i0|c128|p18;\H2.85;\T0.9100;03\T0.9930;4
 44
0.633515
 73
     1
 11
-0.000000000000000
 21
-1.000000
 31
0.000000
  7
BIGFONT
  0
MTEXT
  5
356
100
AcDbEntity
  8
0
100
AcDbMText
 10
57.300000
 20
133.435000
 40
2.850000
 41
5.130000
 71
     1
 72
     5
  1
\fＭＳ Ｐ明朝|b0|i0|c128|p18;\H2.85;\T0.9100;0\T0.9930;7
 44
0.633515
 73
     1
 11
-0.000000000000000
 21
-1.000000
 31
0.000000
  7
BIGFONT
  0
MTEXT
  5
359
100
AcDbEntity
  8
0
100
AcDbMText
 10
79.250000
 20
257.310000
 40
2.381250
 41
71.437500
 71
     1
 72
     5
  1
\fＭＳ ゴシック|b0|i0|c128|p49;\T1.2282; ロッド(φ16mm、長さ500mm)
 44
1.117166
 73
     1
  7
BIGFONT
  0
MTEXT
  5
35c
100
AcDbEntity
  8
0
100
AcDbMText
 10
76.300000
 20
233.185000
 40
2.381250
 41
94.297500
 71
     1
 72
     5
  1
\fＭＳ ゴシック|b0|i0|c128|p49;\T1.2282;④ ガイドロッド(φ16mm、長さ350mm)
 44
1.117166
 73
     1
  7
BIGFONT
  0
MTEXT
  5
35f
100
AcDbEntity
  8
0
100
AcDbMText
 10
79.425000
 20
227.885000
 40
2.381250
 41
88.582500
 71
     1
 72
     5
  1
\fＭＳ ゴシック|b0|i0|c128|p49;\T1.2282; ガイドロッド(φ16mm、長さ500mm)
 44
1.117166
 73
     1
  7
BIGFONT
  0
MTEXT
  5
362
100
AcDbEntity
  8
0
100
AcDbMText
 10
76.425000
 20
220.610000
 40
2.381250
 41
31.432500
 71
     1
 72
     5
  1
\fＭＳ ゴシック|b0|i0|c128|p49;\T1.2282;⑤ ウエイト
 44
1.117166
 73
     1
  7
BIGFONT
  0
MTEXT
  5
365
100
AcDbEntity
  8
0
100
AcDbMText
 10
22.675000
 20
260.635000
 40
2.137500
 41
5.130000
 71
     1
 72
     5
  1
\fＭＳ ゴシック|b0|i0|c128|p49;\H2.1375;\T2.2483;④
 44
0.812023
 73
     1
  7
BIGFONT
  0
LINE
  5
368
100
AcDbEntity
  8
0
370
     0
100
AcDbLine
 10
25.950000
 20
257.710000
 11
34.700000
 21
255.835000
  0
LWPOLYLINE
  5
36b
100
AcDbEntity
  8
0
100
AcDbPolyline
 90
     3
 70
     0
 10
32.700000
 20
255.735000
 10
34.700000
 20
255.835000
 10
32.900000
 20
256.760000
  0
MTEXT
  5
374
100
AcDbEntity
  8
0
100
AcDbMText
 10
22.675000
 20
229.810000
 40
2.137500
 41
5.130000
 71
     1
 72
     5
  1
\fＭＳ ゴシック|b0|i0|c128|p49;\H2.1375;\T2.2483;④
 44
0.812023
 73
     1
  7
BIGFONT
  0
LINE
  5
377
100
AcDbEntity
  8
0
370
     0
100
AcDbLine
 10
25.950000
 20
226.885000
 11
34.700000
 21
225.010000
  0
LWPOLYLINE
  5
37a
100
AcDbEntity
  8
0
100
AcDbPolyline
 90
     3
 70
     0
 10
32.700000
 20
224.910000
 10
34.700000
 20
225.010000
 10
32.900000
 20
225.935000
  0
MTEXT
  5
383
100
AcDbEntity
  8
0
100
AcDbMText
 10
22.075000
 20
215.035000
 40
2.137500
 41
5.130000
 71
     1
 72
     5
  1
\fＭＳ ゴシック|b0|i0|c128|p49;\H2.1375;\T2.2483;②
 44
0.812023
 73
     1
  7
BIGFONT
  0
LINE
  5
386
100
AcDbEntity
  8
0
370
     0
100
AcDbLine
 10
25.300000
 20
212.510000
 11
34.050000
 21
210.635000
  0
LWPOLYLINE
  5
389
100
AcDbEntity
  8
0
100
AcDbPolyline
 90
     3
 70
     0
 10
32.050000
 20
210.535000
 10
34.050000
 20
210.635000
 10
32.250000
 20
211.560000
  0
LINE
  5
392
100
AcDbEntity
  8
0
370
     0
100
AcDbLine
 10
25.925000
 20
135.010000
 11
34.675000
 21
133.135000
  0
LWPOLYLINE
  5
395
100
AcDbEntity
  8
0
100
AcDbPolyline
 90
     3
 70
     0
 10
32.675000
 20
133.035000
 10
34.675000
 20
133.135000
 10
32.875000
 20
134.060000
  0
MTEXT
  5
39e
100
AcDbEntity
  8
0
100
AcDbMText
 10
22.700000
 20
137.185000
 40
2.137500
 41
5.130000
 71
     1
 72
     5
  1
\fＭＳ ゴシック|b0|i0|c128|p49;\H2.1375;\T2.2483;③
 44
0.812023
 73
     1
  7
BIGFONT
  0
LINE
  5
3a1
100
AcDbEntity
  8
0
370
     0
100
AcDbLine
 10
25.925000
 20
150.310000
 11
34.675000
 21
148.435000
  0
LWPOLYLINE
  5
3a4
100
AcDbEntity
  8
0
100
AcDbPolyline
 90
     3
 70
     0
 10
32.675000
 20
148.335000
 10
34.675000
 20
148.435000
 10
32.875000
 20
149.360000
  0
MTEXT
  5
3ad
100
AcDbEntity
  8
0
100
AcDbMText
 10
22.675000
 20
153.135000
 40
2.137500
 41
5.130000
 71
     1
 72
     5
  1
\fＭＳ ゴシック|b0|i0|c128|p49;\H2.1375;\T2.2483;①
 44
0.812023
 73
     1
  7
BIGFONT
  0
LINE
  5
3b0
100
AcDbEntity
  8
0
370
     0
100
AcDbLine
 10
25.950000
 20
187.185000
 11
34.700000
 21
185.310000
  0
LWPOLYLINE
  5
3b3
100
AcDbEntity
  8
0
100
AcDbPolyline
 90
     3
 70
     0
 10
32.700000
 20
185.210000
 10
34.700000
 20
185.310000
 10
32.900000
 20
186.235000
  0
MTEXT
  5
3bc
100
AcDbEntity
  8
0
100
AcDbMText
 10
23.250000
 20
190.360000
 40
2.137500
 41
5.130000
 71
     1
 72
     5
  1
\fＭＳ ゴシック|b0|i0|c128|p49;\H2.1375;\T2.2483;①
 44
0.812023
 73
     1
  7
BIGFONT
  0
MTEXT
  5
3bf
100
AcDbEntity
  8
0
100
AcDbMText
 10
18.975000
 20
224.485000
 40
2.475000
 41
13.365000
 71
     1
 72
     5
  1
\fＭＳ ゴシック|b0|i0|c128|p49;\T0.9100; 500mm
 44
0.987879
 73
     1
  7
BIGFONT
  0
MTEXT
  5
3c2
100
AcDbEntity
  8
0
100
AcDbMText
 10
19.275000
 20
185.110000
 40
2.475000
 41
13.365000
 71
     1
 72
     5
  1
\fＭＳ ゴシック|b0|i0|c128|p49;\T0.9100; 500mm
 44
0.987879
 73
     1
  7
BIGFONT
  0
MTEXT
  5
3c5
100
AcDbEntity
  8
0
100
AcDbMText
 10
19.950000
 20
148.535000
 40
2.475000
 41
11.137500
 71
     1
 72
     5
  1
\fＭＳ ゴシック|b0|i0|c128|p49;\T0.9100;430mm
 44
0.987879
 73
     1
  7
BIGFONT
  0
MTEXT
  5
3c8
100
AcDbEntity
  8
0
100
AcDbMText
 10
20.075000
 20
255.960000
 40
2.475000
 41
11.137500
 71
     1
 72
     5
  1
\fＭＳ ゴシック|b0|i0|c128|p49;\T0.9100;350mm
 44
0.987879
 73
     1
  7
BIGFONT
  0
LINE
  5
3cb
100
AcDbEntity
  8
0
370
    20
100
AcDbLine
 10
52.200000
 20
202.360000
 11
36.400000
 21
197.585000
  0
LINE
  5
3ce
100
AcDbEntity
  8
0
370
    20
100
AcDbLine
 10
37.300000
 20
196.885000
 11
37.925000
 21
198.085000
  0
LINE
  5
3d1
100
AcDbEntity
  8
0
370
    20
100
AcDbLine
 10
38.200000
 20
197.160000
 11
38.850000
 21
198.360000
  0
LINE
  5
3d4
100
AcDbEntity
  8
0
370
    20
100
AcDbLine
 10
39.125000
 20
197.410000
 11
38.325000
 21
197.835000
  0
LINE
  5
3d7
100
AcDbEntity
  8
0
370
    20
100
AcDbLine
 10
39.425000
 20
197.535000
 11
40.075000
 21
198.710000
  0
LINE
  5
3da
100
AcDbEntity
  8
0
370
    20
100
AcDbLine
 10
40.325000
 20
197.810000
 11
40.975000
 21
198.985000
  0
LINE
  5
3dd
100
AcDbEntity
  8
0
370
    20
100
AcDbLine
 10
41.225000
 20
198.060000
 11
40.450000
 21
198.485000
  0
LINE
  5
3e0
100
AcDbEntity
  8
0
370
    20
100
AcDbLine
 10
41.525000
 20
198.160000
 11
42.150000
 21
199.360000
  0
LINE
  5
3e3
100
AcDbEntity
  8
0
370
    20
100
AcDbLine
 10
42.425000
 20
198.435000
 11
43.100000
 21
199.635000
  0
LINE
  5
3e6
100
AcDbEntity
  8
0
370
    20
100
AcDbLine
 10
43.375000
 20
198.735000
 11
42.550000
 21
199.110000
  0
LINE
  5
3e9
100
AcDbEntity
  8
0
370
    20
100
AcDbLine
 10
43.375000
 20
198.735000
 11
44.000000
 21
199.885000
  0
LINE
  5
3ec
100
AcDbEntity
  8
0
370
    20
100
AcDbLine
 10
44.275000
 20
198.985000
 11
44.925000
 21
200.160000
  0
LINE
  5
3ef
100
AcDbEntity
  8
0
370
    20
100
AcDbLine
 10
45.175000
 20
199.260000
 11
44.375000
 21
199.685000
  0
LINE
  5
3f2
100
AcDbEntity
  8
0
370
    20
100
AcDbLine
 10
45.475000
 20
199.335000
 11
46.100000
 21
200.535000
  0
LINE
  5
3f5
100
AcDbEntity
  8
0
370
    20
100
AcDbLine
 10
46.375000
 20
199.610000
 11
47.025000
 21
200.810000
  0
LINE
  5
3f8
100
AcDbEntity
  8
0
370
    20
100
AcDbLine
 10
47.300000
 20
199.885000
 11
46.500000
 21
200.310000
  0
LINE
  5
3fb
100
AcDbEntity
  8
0
370
    20
100
AcDbLine
 10
47.300000
 20
199.885000
 11
47.950000
 21
201.085000
  0
LINE
  5
3fe
100
AcDbEntity
  8
0
370
    20
100
AcDbLine
 10
48.225000
 20
200.185000
 11
48.850000
 21
201.360000
  0
LINE
  5
401
100
AcDbEntity
  8
0
370
    20
100
AcDbLine
 10
49.125000
 20
200.460000
 11
48.325000
 21
200.885000
  0
LINE
  5
404
100
AcDbEntity
  8
0
370
    20
100
AcDbLine
 10
49.425000
 20
200.535000
 11
50.050000
 21
201.735000
  0
LINE
  5
407
100
AcDbEntity
  8
0
370
    20
100
AcDbLine
 10
50.325000
 20
200.810000
 11
50.975000
 21
202.010000
  0
LINE
  5
40a
100
AcDbEntity
  8
0
370
    20
100
AcDbLine
 10
51.250000
 20
201.085000
 11
50.475000
 21
201.510000
  0
LINE
  5
40d
100
AcDbEntity
  8
0
370
    20
100
AcDbLine
 10
51.575000
 20
201.185000
 11
52.200000
 21
202.360000
  0
LWPOLYLINE
  5
410
100
AcDbEntity
  8
0
100
AcDbPolyline
 90
     4
 70
     1
 43
0.200000
 10
76.900000
 20
175.235000
 10
82.200000
 20
175.235000
 10
82.200000
 20
162.410000
 10
76.900000
 20
162.410000
  0
LWPOLYLINE
  5
41b
100
AcDbEntity
  8
0
100
AcDbPolyline
 90
     2
 70
     0
 43
0.200000
 10
76.900000
 20
162.410000
 10
74.400000
 20
154.610000
  0
LWPOLYLINE
  5
422
100
AcDbEntity
  8
0
100
AcDbPolyline
 90
     4
 70
     0
 43
0.200000
 10
74.700000
 20
154.610000
 10
85.025000
 20
154.610000
 10
85.025000
 20
154.910000
 10
82.200000
 20
162.410000
  0
LINE
  5
42d
100
AcDbEntity
  8
0
370
    20
100
AcDbLine
 10
85.025000
 20
154.610000
 11
79.700000
 21
147.110000
  0
LINE
  5
430
100
AcDbEntity
  8
0
370
    20
100
AcDbLine
 10
79.700000
 20
147.110000
 11
74.700000
 21
154.610000
  0
ARC
  5
433
100
AcDbEntity
  8
0
370
     0
100
AcDbCircle
 10
79.700000
 20
147.110000
 40
3.575000
100
AcDbArc
 50
54.875000
 51
123.687500
  0
MTEXT
  5
436
100
AcDbEntity
  8
0
100
AcDbMText
 10
78.900000
 20
154.385000
 40
1.612500
 41
5.805000
 71
     1
 72
     5
  1
\fＭＳ ゴシック|b0|i0|c128|p49;\H1.6125;\T1.9405;60\T2.7632;　
 44
0.846789
 73
     1
  7
BIGFONT
  0
LINE
  5
439
100
AcDbEntity
  8
0
370
    20
100
AcDbLine
 10
81.275000
 20
146.785000
 11
94.400000
 21
146.785000
  0
LINE
  5
43c
100
AcDbEntity
  8
0
370
    20
100
AcDbLine
 10
92.525000
 20
175.235000
 11
92.525000
 21
146.785000
  0
LWPOLYLINE
  5
43f
100
AcDbEntity
  8
0
100
AcDbPolyline
 90
     3
 70
     0
 43
0.200000
 10
93.300000
 20
172.360000
 10
92.525000
 20
175.235000
 10
91.725000
 20
172.360000
  0
LWPOLYLINE
  5
448
100
AcDbEntity
  8
0
100
AcDbPolyline
 90
     3
 70
     0
 43
0.200000
 10
91.725000
 20
149.685000
 10
92.525000
 20
146.785000
 10
93.300000
 20
149.685000
  0
LINE
  5
451
100
AcDbEntity
  8
0
370
    20
100
AcDbLine
 10
74.700000
 20
153.360000
 11
74.700000
 21
140.860000
  0
LINE
  5
454
100
AcDbEntity
  8
0
370
    20
100
AcDbLine
 10
85.025000
 20
153.035000
 11
85.025000
 21
140.535000
  0
LINE
  5
457
100
AcDbEntity
  8
0
370
    20
100
AcDbLine
 10
75.025000
 20
141.785000
 11
85.025000
 21
141.785000
  0
LWPOLYLINE
  5
45a
100
AcDbEntity
  8
0
100
AcDbPolyline
 90
     3
 70
     0
 43
0.200000
 10
76.950000
 20
142.310000
 10
75.025000
 20
141.785000
 10
76.950000
 20
141.285000
  0
LWPOLYLINE
  5
463
100
AcDbEntity
  8
0
100
AcDbPolyline
 90
     3
 70
     0
 43
0.200000
 10
83.075000
 20
141.285000
 10
85.025000
 20
141.785000
 10
83.075000
 20
142.310000
  0
MTEXT
  5
46c
100
AcDbEntity
  8
0
100
AcDbMText
 10
92.925000
 20
162.885000
 40
2.150000
 41
3.870000
 71
     1
 72
     5
  1
\fＭＳ ゴシック|b0|i0|c128|p49;\H2.15;\T0.9100;0\T1.0629;7
 44
0.651376
 73
     1
 11
-0.000000000000000
 21
-1.000000
 31
0.000000
  7
BIGFONT
  0
MTEXT
  5
46f
100
AcDbEntity
  8
0
100
AcDbMText
 10
79.250000
 20
145.660000
 40
2.150000
 41
3.870000
 71
     1
 72
     5
  1
\fＭＳ ゴシック|b0|i0|c128|p49;\H2.15;\T0.9100;2\T1.0629;5
 44
0.651376
 73
     1
  7
BIGFONT
  0
LWPOLYLINE
  5
472
100
AcDbEntity
  8
0
100
AcDbPolyline
 90
     4
 70
     1
 43
0.200000
 10
117.200000
 20
185.985000
 10
131.200000
 20
185.985000
 10
131.200000
 20
181.560000
 10
117.200000
 20
181.560000
  0
LWPOLYLINE
  5
47d
100
AcDbEntity
  8
0
100
AcDbPolyline
 90
     4
 70
     1
 43
0.200000
 10
122.250000
 20
170.710000
 10
127.050000
 20
170.710000
 10
127.050000
 20
144.885000
 10
122.250000
 20
144.885000
  0
LINE
  5
488
100
AcDbEntity
  8
0
370
    20
100
AcDbLine
 10
131.200000
 20
181.560000
 11
127.050000
 21
170.710000
  0
LINE
  5
48b
100
AcDbEntity
  8
0
370
    20
100
AcDbLine
 10
117.275000
 20
181.560000
 11
122.250000
 21
170.710000
  0
LINE
  5
48e
100
AcDbEntity
  8
0
  6
DOT
 62
     7
370
     0
100
AcDbLine
 10
122.625000
 20
185.985000
 11
122.625000
 21
178.360000
  0
LINE
  5
491
100
AcDbEntity
  8
0
  6
DOT
 62
     7
370
     0
100
AcDbLine
 10
126.725000
 20
178.060000
 11
126.725000
 21
185.985000
  0
LINE
  5
494
100
AcDbEntity
  8
0
  6
DOT
 62
     7
370
     0
100
AcDbLine
 10
122.625000
 20
178.060000
 11
126.725000
 21
178.060000
  0
LINE
  5
497
100
AcDbEntity
  8
0
  6
DOT
 62
     7
370
     0
100
AcDbLine
 10
123.100000
 20
152.835000
 11
123.100000
 21
144.885000
  0
LINE
  5
49a
100
AcDbEntity
  8
0
  6
DOT
 62
     7
370
     0
100
AcDbLine
 10
123.375000
 20
152.860000
 11
126.250000
 21
152.860000
  0
LINE
  5
49d
100
AcDbEntity
  8
0
  6
DOT
 62
     7
370
     0
100
AcDbLine
 10
126.250000
 20
152.835000
 11
126.250000
 21
144.885000
  0
LINE
  5
4a0
100
AcDbEntity
  8
0
370
    20
100
AcDbLine
 10
117.200000
 20
187.460000
 11
117.200000
 21
193.360000
  0
LINE
  5
4a3
100
AcDbEntity
  8
0
370
    20
100
AcDbLine
 10
131.200000
 20
193.360000
 11
131.200000
 21
187.460000
  0
LINE
  5
4a6
100
AcDbEntity
  8
0
370
    20
100
AcDbLine
 10
117.200000
 20
191.485000
 11
131.275000
 21
191.485000
  0
LWPOLYLINE
  5
4a9
100
AcDbEntity
  8
0
100
AcDbPolyline
 90
     3
 70
     0
 43
0.200000
 10
120.075000
 20
192.285000
 10
117.200000
 20
191.485000
 10
120.075000
 20
190.710000
  0
LWPOLYLINE
  5
4b2
100
AcDbEntity
  8
0
100
AcDbPolyline
 90
     3
 70
     0
 43
0.200000
 10
128.375000
 20
190.710000
 10
131.275000
 20
191.485000
 10
128.375000
 20
192.285000
  0
MTEXT
  5
4bb
100
AcDbEntity
  8
0
100
AcDbMText
 10
123.600000
 20
195.660000
 40
2.150000
 41
3.870000
 71
     1
 72
     5
  1
\fＭＳ ゴシック|b0|i0|c128|p49;\H2.15;\T0.9100;4\T1.0629;0
 44
0.651376
 73
     1
  7
BIGFONT
  0
LINE
  5
4be
100
AcDbEntity
  8
0
370
    20
100
AcDbLine
 10
122.225000
 20
143.960000
 11
122.225000
 21
141.135000
  0
LINE
  5
4c1
100
AcDbEntity
  8
0
370
    20
100
AcDbLine
 10
126.900000
 20
143.960000
 11
126.900000
 21
141.135000
  0
LINE
  5
4c4
100
AcDbEntity
  8
0
370
    20
100
AcDbLine
 10
117.050000
 20
141.960000
 11
121.500000
 21
141.960000
  0
LWPOLYLINE
  5
4c7
100
AcDbEntity
  8
0
100
AcDbPolyline
 90
     3
 70
     0
 43
0.200000
 10
119.900000
 20
141.010000
 10
121.500000
 20
141.960000
 10
119.900000
 20
142.910000
  0
LINE
  5
4d0
100
AcDbEntity
  8
0
370
    20
100
AcDbLine
 10
117.050000
 20
141.960000
 11
121.500000
 21
141.960000
  0
LWPOLYLINE
  5
4d3
100
AcDbEntity
  8
0
100
AcDbPolyline
 90
     3
 70
     0
 43
0.200000
 10
119.900000
 20
141.010000
 10
121.500000
 20
141.960000
 10
119.900000
 20
142.910000
  0
LINE
  5
4dc
100
AcDbEntity
  8
0
370
    20
100
AcDbLine
 10
127.200000
 20
141.985000
 11
131.625000
 21
141.985000
  0
LWPOLYLINE
  5
4df
100
AcDbEntity
  8
0
100
AcDbPolyline
 90
     3
 70
     0
 43
0.200000
 10
128.775000
 20
142.935000
 10
127.200000
 20
141.985000
 10
128.775000
 20
141.035000
  0
MTEXT
  5
4e8
100
AcDbEntity
  8
0
100
AcDbMText
 10
121.550000
 20
140.360000
 40
2.475000
 41
8.910000
 71
     1
 72
     5
  1
\fＭＳ ゴシック|b0|i0|c128|p49;\T1.0200;φ16
 44
0.987879
 73
     1
  7
BIGFONT
  0
LINE
  5
4eb
100
AcDbEntity
  8
0
370
    20
100
AcDbLine
 10
132.525000
 20
185.835000
 11
140.025000
 21
185.835000
  0
LINE
  5
4ee
100
AcDbEntity
  8
0
370
    20
100
AcDbLine
 10
127.850000
 20
144.885000
 11
140.025000
 21
144.885000
  0
LINE
  5
4f1
100
AcDbEntity
  8
0
370
    20
100
AcDbLine
 10
138.150000
 20
185.835000
 11
138.150000
 21
144.885000
  0
LWPOLYLINE
  5
4f4
100
AcDbEntity
  8
0
100
AcDbPolyline
 90
     3
 70
     0
 43
0.200000
 10
138.925000
 20
182.960000
 10
138.150000
 20
185.835000
 10
137.350000
 20
182.960000
  0
LWPOLYLINE
  5
4fd
100
AcDbEntity
  8
0
100
AcDbPolyline
 90
     3
 70
     0
 43
0.200000
 10
137.350000
 20
147.785000
 10
138.150000
 20
144.885000
 10
138.925000
 20
147.785000
  0
MTEXT
  5
506
100
AcDbEntity
  8
0
100
AcDbMText
 10
138.900000
 20
166.935000
 40
2.150000
 41
5.805000
 71
     1
 72
     5
  1
\fＭＳ ゴシック|b0|i0|c128|p49;\H2.15;\T0.9100;00\T1.0629;1
 44
0.651376
 73
     1
 11
-0.000000000000000
 21
-1.000000
 31
0.000000
  7
BIGFONT
  0
MTEXT
  5
509
100
AcDbEntity
  8
0
100
AcDbMText
 10
111.050000
 20
135.885000
 40
2.381250
 41
62.865000
 71
     1
 72
     5
  1
\fＭＳ Ｐ明朝|b0|i0|c128|p18;\T1.0200;ノッキングヘッド詳細図
 44
0.750000
 73
     1
  7
BIGFONT
  0
MTEXT
  5
50c
100
AcDbEntity
  8
0
100
AcDbMText
 10
66.875000
 20
136.535000
 40
2.381250
 41
57.150000
 71
     1
 72
     5
  1
\fＭＳ Ｐ明朝|b0|i0|c128|p18;\T1.0200;貫入先端コーン詳細図
 44
0.750000
 73
     1
  7
BIGFONT
  0
LINE
  5
50f
100
AcDbEntity
  8
0
370
    20
100
AcDbLine
 10
36.425000
 20
205.535000
 11
36.425000
 21
179.685000
  0
LINE
  5
512
100
AcDbEntity
  8
0
370
    20
100
AcDbLine
 10
36.425000
 20
179.685000
 11
36.425000
 21
174.360000
  0
LINE
  5
515
100
AcDbEntity
  8
0
370
     0
100
AcDbLine
 10
77.875000
 20
150.185000
 11
78.250000
 21
150.485000
  0
LINE
  5
518
100
AcDbEntity
  8
0
370
     0
100
AcDbLine
 10
81.700000
 20
150.035000
 11
81.275000
 21
150.485000
  0
LINE
  5
51b
100
AcDbEntity
  8
0
370
     0
100
AcDbLine
 10
24.700000
 20
247.185000
 11
33.450000
 21
245.310000
  0
LWPOLYLINE
  5
51e
100
AcDbEntity
  8
0
100
AcDbPolyline
 90
     3
 70
     0
 10
31.450000
 20
245.210000
 10
33.450000
 20
245.310000
 10
31.650000
 20
246.235000
  0
MTEXT
  5
527
100
AcDbEntity
  8
0
100
AcDbMText
 10
22.325000
 20
249.410000
 40
2.137500
 41
5.130000
 71
     1
 72
     5
  1
\fＭＳ ゴシック|b0|i0|c128|p49;\H2.1375;\T2.2483;⑤
 44
0.812023
 73
     1
  7
BIGFONT
  0
LINE
  5
52a
100
AcDbEntity
  8
0
370
    20
100
AcDbLine
 10
35.150000
 20
205.560000
 11
35.150000
 21
174.310000
  0
MTEXT
  5
52d
100
AcDbEntity
  8
0
100
AcDbMText
 10
108.925000
 20
250.285000
 40
2.381250
 41
34.290000
 71
     1
 72
     5
  1
\fＭＳ ゴシック|b0|i0|c128|p49;\T1.2282;（下図参照）
 44
1.117166
 73
     1
  7
BIGFONT
  0
ENDSEC
  0
SECTION
  2
OBJECTS
  0
DICTIONARY
  5
538
100
AcDbDictionary
281
     1
  3
ACAD_COLOR
350
539
  3
ACAD_GROUP
350
53a
  3
ACAD_LAYOUT
350
53b
  3
ACAD_MATERIAL
350
53c
  3
ACAD_MLINESTYLE
350
53d
  3
CONTENTDICTIONARY
350
543
  0
DICTIONARY
  5
539
102
{ACAD_REACTORS
330
538
102
}
330
538
100
AcDbDictionary
281
     1
  0
DICTIONARY
  5
53a
102
{ACAD_REACTORS
330
538
102
}
330
538
100
AcDbDictionary
281
     1
  3
Layout1
350
544
  3
Layout2
350
545
  3
Model
350
588
  0
DICTIONARY
  5
53b
102
{ACAD_REACTORS
330
538
102
}
330
538
100
AcDbDictionary
281
     1
  0
DICTIONARY
  5
53c
102
{ACAD_REACTORS
330
538
102
}
330
538
100
AcDbDictionary
281
     1
  0
DICTIONARY
  5
53d
102
{ACAD_REACTORS
330
538
102
}
330
538
100
AcDbDictionary
281
     1
  3
Standard
350
546
  0
DICTIONARY
  5
53e
102
{ACAD_REACTORS
330
538
102
}
330
538
100
AcDbDictionary
281
     1
  0
ACDBDICTIONARYWDFLT
  5
53f
102
{ACAD_REACTORS
330
538
102
}
330
538
100
AcDbDictionary
281
     1
  3
Normal
350
589
100
AcDbDictionaryWithDefault
340
589
  0
DICTIONARY
  5
540
102
{ACAD_REACTORS
330
538
102
}
330
538
100
AcDbDictionary
281
     1
  3
Standard
350
58a
  0
DICTIONARY
  5
541
102
{ACAD_REACTORS
330
538
102
}
330
538
100
AcDbDictionary
281
     1
  3
CEPSNTYPE
350
548
  3
FINGERPRINTGUID
350
549
  3
HYPERLINKBASE
350
54a
  3
INSUNITS
350
54b
  3
LAYOUTDICT
350
54c
  3
LWETCUNION
350
54d
  3
PLOTSETDICT
350
54e
  3
PLOTSTYLNAMDICT
350
54f
  3
PSVPSCALE
350
550
  3
PUCSBASE
350
551
  3
PUCSORGBACK
350
552
  3
PUCSORGBOTTOM
350
553
  3
PUCSORGFRONT
350
554
  3
PUCSORGLEFT
350
555
  3
PUCSORGRIGHT
350
556
  3
PUCSORGTOP
350
557
  3
PUCSORTHOREF
350
558
  3
PUCSORTHOVIEW
350
559
  3
STYLESHEET
350
55a
  3
TSTACKALIGN
350
55b
  3
TSTACKSIZE
350
55c
  3
UCSBASE
350
55d
  3
UCSORGBACK
350
55e
  3
UCSORGBOTTOM
350
55f
  3
UCSORGFRONT
350
560
  3
UCSORGLEFT
350
561
  3
UCSORGRIGHT
350
562
  3
UCSORGTOP
350
563
  3
UCSORTHOREF
350
564
  3
UCSORTHOVIEW
350
565
  3
VERSIONGUID
350
566
  0
DICTIONARY
  5
542
102
{ACAD_REACTORS
330
538
102
}
330
538
100
AcDbDictionary
281
     1
  3
CTABLESTYLE
350
567
  3
DIMASSOC
350
568
  3
HIDETEXT
350
569
  3
PROJECTNAME
350
56a
  0
LAYOUT
  5
543
102
{ACAD_XDICTIONARY
360
84e
102
}
102
{ACAD_REACTORS
330
539
102
}
330
539
100
AcDbPlotSettings
  1

  2

  4

  6

 40
0.000000
 41
0.000000
 42
0.000000
 43
0.000000
 44
0.000000
 45
0.000000
 46
0.000000
 47
0.000000
 48
0.000000
 49
0.000000
140
0.000000
141
0.000000
142
1.000000
143
1.000000
 70
   688
 72
     0
 73
     0
 74
     5
  7

 75
    16
147
1.000000
148
0.000000
149
0.000000
100
AcDbLayout
  1
Layout1
 70
     1
 71
     1
 10
0.000000
 20
0.000000
 11
197.060000
 21
283.060000
 12
0.000000
 22
0.000000
 32
0.000000
 14
100000000000000000000.000000
 24
100000000000000000000.000000
 34
100000000000000000000.000000
 15
-100000000000000000000.000000
 25
-100000000000000000000.000000
 35
-100000000000000000000.000000
146
0.000000
 13
0.000000
 23
0.000000
 33
0.000000
 16
1.000000
 26
0.000000
 36
0.000000
 17
0.000000
 27
1.000000
 37
0.000000
 76
     0
330
53d
  0
LAYOUT
  5
544
102
{ACAD_XDICTIONARY
360
850
102
}
102
{ACAD_REACTORS
330
539
102
}
330
539
100
AcDbPlotSettings
  1

  2

  4

  6

 40
0.000000
 41
0.000000
 42
0.000000
 43
0.000000
 44
0.000000
 45
0.000000
 46
0.000000
 47
0.000000
 48
0.000000
 49
0.000000
140
0.000000
141
0.000000
142
1.000000
143
1.000000
 70
   688
 72
     0
 73
     0
 74
     5
  7

 75
    16
147
1.000000
148
0.000000
149
0.000000
100
AcDbLayout
  1
Layout2
 70
     1
 71
     2
 10
0.000000
 20
0.000000
 11
197.060000
 21
283.060000
 12
0.000000
 22
0.000000
 32
0.000000
 14
0.000000
 24
0.000000
 34
0.000000
 15
0.000000
 25
0.000000
 35
0.000000
146
0.000000
 13
0.000000
 23
0.000000
 33
0.000000
 16
1.000000
 26
0.000000
 36
0.000000
 17
0.000000
 27
1.000000
 37
0.000000
 76
     0
330
544
  0
LAYOUT
  5
545
102
{ACAD_XDICTIONARY
360
852
102
}
102
{ACAD_REACTORS
330
539
102
}
330
539
100
AcDbPlotSettings
  1

  2

  4

  6

 40
0.000000
 41
0.000000
 42
0.000000
 43
0.000000
 44
0.000000
 45
0.000000
 46
0.000000
 47
0.000000
 48
0.000000
 49
0.000000
140
0.000000
141
0.000000
142
1.000000
143
1.000000
 70
  1712
 72
     0
 73
     0
 74
     0
  7

 75
    16
147
1.000000
148
0.000000
149
0.000000
100
AcDbLayout
  1
Model
 70
     1
 71
     0
 10
0.000000
 20
0.000000
 11
197.060000
 21
283.060000
 12
0.000000
 22
0.000000
 32
0.000000
 14
0.000000
 24
0.000000
 34
0.000000
 15
0.000000
 25
0.000000
 35
0.000000
146
0.000000
 13
0.000000
 23
0.000000
 33
0.000000
 16
1.000000
 26
0.000000
 36
0.000000
 17
0.000000
 27
1.000000
 37
0.000000
 76
     0
330
545
  0
MLINESTYLE
  5
546
102
{ACAD_REACTORS
330
545
102
}
330
545
100
AcDbMlineStyle
  2
STANDARD
 70
     0
  3
 
 62
   256
 51
90.000000
 52
90.000000
 71
     2
 49
0.500000
 62
   256
  6
BYLAYER
 49
-0.500000
 62
   256
  6
BYLAYER
  0
ACDBPLACEHOLDER
  5
547
102
{ACAD_REACTORS
330
546
102
}
330
546
  0
DICTIONARY
  5
84e
100
AcDbDictionary
280
     1
281
     1
  3
ACAD_XREC_ROUNDTRIP
360
84f
  0
DICTIONARY
  5
850
100
AcDbDictionary
280
     1
281
     1
  3
ACAD_XREC_ROUNDTRIP
360
851
  0
DICTIONARY
  5
852
100
AcDbDictionary
280
     1
281
     1
  3
ACAD_XREC_ROUNDTRIP
360
853
  0
XRECORD
  5
84f
102
{ACAD_REACTORS
330
84e
102
}
330
84e
100
AcDbXrecord
280
     1
102
SHADEPLOT
 70
     0
102
SHADEPLOTRESLEVEL
 70
     2
102
SHADEPLOTCUSTOMDPI
 70
   300
  0
XRECORD
  5
851
102
{ACAD_REACTORS
330
850
102
}
330
850
100
AcDbXrecord
280
     1
102
SHADEPLOT
 70
     0
102
SHADEPLOTRESLEVEL
 70
     2
102
SHADEPLOTCUSTOMDPI
 70
   300
  0
XRECORD
  5
853
102
{ACAD_REACTORS
330
852
102
}
330
852
100
AcDbXrecord
280
     1
102
SHADEPLOT
 70
     0
102
SHADEPLOTRESLEVEL
 70
     2
102
SHADEPLOTCUSTOMDPI
 70
   300
  0
ENDSEC
  0
EOF
