  0
SECTION
  2
HEADER
  9
$ACADVER
  1
AC1018
  9
$ACADMAINTVER
 70
     0
  9
$DWGCODEPAGE
  3
ANSI_932
  9
$INSBASE
 10
0.000000
 20
0.000000
 30
0.000000
  9
$EXTMIN
 10
0.000000
 20
0.000000
 30
0.000000
  9
$EXTMAX
 10
199.000000
 20
285.000000
 30
0.000000
  9
$LIMMIN
 10
0.000000
 20
0.000000
  9
$LIMMAX
 10
199.000000
 20
285.000000
  9
$ORTHOMODE
 70
     0
  9
$REGENMODE
 70
     1
  9
$FILLMODE
 70
     1
  9
$QTEXTMODE
 70
     0
  9
$MIRRTEXT
 70
     1
  9
$LTSCALE
 40
1.000000
  9
$ATTMODE
 70
     1
  9
$TEXTSIZE
 40
2.500000
  9
$TRACEWID
 40
1.000000
  9
$TEXTSTYLE
  7
BIGFONT
  9
$CLAYER
  8
0
  9
$CELTYPE
  6
BYLAYER
  9
$CECOLOR
 62
   256
  9
$CELTSCALE
 40
1.000000
  9
$DISPSILH
 70
     0
  9
$DIMSCALE
 40
1.000000
  9
$DIMASZ
 40
2.500000
  9
$DIMEXO
 40
0.625000
  9
$DIMDLI
 40
3.750000
  9
$DIMRND
 40
0.000000
  9
$DIMDLE
 40
0.000000
  9
$DIMEXE
 40
1.250000
  9
$DIMTP
 40
0.000000
  9
$DIMTM
 40
0.000000
  9
$DIMTXT
 40
2.500000
  9
$DIMCEN
 40
2.500000
  9
$DIMTSZ
 40
0.000000
  9
$DIMTOL
 70
     0
  9
$DIMLIM
 70
     0
  9
$DIMTIH
 70
     0
  9
$DIMTOH
 70
     0
  9
$DIMSE1
 70
     0
  9
$DIMSE2
 70
     0
  9
$DIMTAD
 70
     1
  9
$DIMZIN
 70
     8
  9
$DIMBLK
  1

  9
$DIMASO
 70
     1
  9
$DIMSHO
 70
     1
  9
$DIMPOST
  1

  9
$DIMAPOST
  1

  9
$DIMALT
 70
     0
  9
$DIMALTD
 70
     4
  9
$DIMALTF
 40
0.039400
  9
$DIMLFAC
 40
1.000000
  9
$DIMTOFL
 70
     1
  9
$DIMTVP
 40
0.000000
  9
$DIMTIX
 70
     0
  9
$DIMSOXD
 70
     0
  9
$DIMSAH
 70
     0
  9
$DIMBLK1
  1

  9
$DIMBLK2
  1

  9
$DIMSTYLE
  2
STANDARD
  9
$DIMCLRD
 70
     0
  9
$DIMCLRE
 70
     0
  9
$DIMCLRT
 70
     0
  9
$DIMTFAC
 40
1.000000
  9
$DIMGAP
 40
0.625000
  9
$DIMJUST
 70
     0
  9
$DIMSD1
 70
     0
  9
$DIMSD2
 70
     0
  9
$DIMTOLJ
 70
     1
  9
$DIMTZIN
 70
     0
  9
$DIMALTZ
 70
     0
  9
$DIMALTTZ
 70
     0
  9
$DIMUPT
 70
     0
  9
$DIMDEC
 70
     4
  9
$DIMTDEC
 70
     4
  9
$DIMALTU
 70
     8
  9
$DIMALTTD
 70
     4
  9
$DIMTXSTY
  7
STANDARD
  9
$DIMAUNIT
 70
     0
  9
$DIMADEC
 70
     0
  9
$DIMALTRND
 40
0.000000
  9
$DIMAZIN
 70
     0
  9
$DIMDSEP
 70
    46
  9
$DIMATFIT
 70
     3
  9
$DIMFRAC
 70
     0
  9
$DIMLDRBLK
  1

  9
$DIMLUNIT
 70
     2
  9
$DIMLWD
 70
-2
  9
$DIMLWE
 70
-2
  9
$DIMTMOVE
 70
     0
  9
$LUNITS
 70
     2
  9
$LUPREC
 70
     4
  9
$AXISMODE
 70
     0
  9
$SKETCHINC
 40
1.000000
  9
$FILLETRAD
 40
10.000000
  9
$AUNITS
 70
     0
  9
$AUPREC
 70
     0
  9
$MENU
  1
acad
  9
$ELEVATION
 40
0.000000
  9
$PELEVATION
 40
0.000000
  9
$THICKNESS
 40
0.000000
  9
$LIMCHECK
 70
     0
  9
$BLIPMODE
 70
     0
  9
$CHAMFERA
 40
10.000000
  9
$CHAMFERB
 40
10.000000
  9
$CHAMFERC
 40
20.000000
  9
$CHAMFERD
 40
0.000000
  9
$SKPOLY
 70
     0
  9
$TDCREATE
 40
2447851.677998
  9
$TDUCREATE
 40
2447851.677998
  9
$TDUPDATE
 40
2447851.677998
  9
$TDUUPDATE
 40
2447851.677998
  9
$TDINDWG
 40
0.000000
  9
$TDUSRTIMER
 40
0.000000
  9
$USRTIMER
 70
     1
  9
$ANGBASE
 50
0.000000
  9
$ANGDIR
 70
     0
  9
$PDMODE
 70
     0
  9
$PDSIZE
 40
0.000000
  9
$PLINEWID
 40
0.000000
  9
$SPLFRAME
 70
     0
  9
$SPLINETYPE
 70
     6
  9
$SPLINESEGS
 70
     8
  9
$HANDSEED
  5
FFFFFFF
  9
$SURFTAB1
 70
     6
  9
$SURFTAB2
 70
     6
  9
$SURFTYPE
 70
     6
  9
$SURFU
 70
     6
  9
$SURFV
 70
     6
  9
$UCSBASE
  2

  9
$UCSNAME
  2

  9
$UCSORG
 10
0.000000
 20
0.000000
 30
0.000000
  9
$UCSXDIR
 10
1.000000
 20
0.000000
 30
0.000000
  9
$UCSYDIR
 10
0.000000
 20
1.000000
 30
0.000000
  9
$UCSORTHOREF
  2

  9
$UCSORTHOVIEW
 70
     0
  9
$UCSORGTOP
 10
0.000000
 20
0.000000
 30
0.000000
  9
$UCSORGBOTTOM
 10
0.000000
 20
0.000000
 30
0.000000
  9
$UCSORGLEFT
 10
0.000000
 20
0.000000
 30
0.000000
  9
$UCSORGRIGHT
 10
0.000000
 20
0.000000
 30
0.000000
  9
$UCSORGFRONT
 10
0.000000
 20
0.000000
 30
0.000000
  9
$UCSORGBACK
 10
0.000000
 20
0.000000
 30
0.000000
  9
$PUCSBASE
  2

  9
$PUCSNAME
  2

  9
$PUCSORG
 10
0.000000
 20
0.000000
 30
0.000000
  9
$PUCSXDIR
 10
1.000000
 20
0.000000
 30
0.000000
  9
$PUCSYDIR
 10
0.000000
 20
1.000000
 30
0.000000
  9
$PUCSORTHOREF
  2

  9
$PUCSORTHOVIEW
 70
     0
  9
$PUCSORGTOP
 10
0.000000
 20
0.000000
 30
0.000000
  9
$PUCSORGBOTTOM
 10
0.000000
 20
0.000000
 30
0.000000
  9
$PUCSORGLEFT
 10
0.000000
 20
0.000000
 30
0.000000
  9
$PUCSORGRIGHT
 10
0.000000
 20
0.000000
 30
0.000000
  9
$PUCSORGFRONT
 10
0.000000
 20
0.000000
 30
0.000000
  9
$PUCSORGBACK
 10
0.000000
 20
0.000000
 30
0.000000
  9
$USERI1
 70
     0
  9
$USERI2
 70
     0
  9
$USERI3
 70
     0
  9
$USERI4
 70
     0
  9
$USERI5
 70
     0
  9
$USERR1
 40
0.000000
  9
$USERR2
 40
0.000000
  9
$USERR3
 40
0.000000
  9
$USERR4
 40
0.000000
  9
$USERR5
 40
0.000000
  9
$WORLDVIEW
 70
     1
  9
$SHADEDGE
 70
     3
  9
$SHADEDIF
 70
    70
  9
$TILEMODE
 70
     1
  9
$MAXACTVP
 70
    48
  9
$PINSBASE
 10
0.000000
 20
0.000000
 30
0.000000
  9
$PLIMCHECK
 70
     0
  9
$PEXTMIN
 10
100000000000000000000.000000
 20
100000000000000000000.000000
 30
100000000000000000000.000000
  9
$PEXTMAX
 10
-100000000000000000000.000000
 20
-100000000000000000000.000000
 30
-100000000000000000000.000000
  9
$PLIMMIN
 10
0.000000
 20
0.000000
  9
$PLIMMAX
 10
199.000000
 20
285.000000
  9
$UNITMODE
 70
     0
  9
$VISRETAIN
 70
     1
  9
$PLINEGEN
 70
     0
  9
$PSLTSCALE
 70
     1
  9
$TREEDEPTH
 70
  3020
  9
$CMLSTYLE
  2
STANDARD
  9
$CMLJUST
 70
     0
  9
$CMLSCALE
 40
20.000000
  9
$PROXYGRAPHICS
 70
     1
  9
$MEASUREMENT
 70
     1
  9
$CELWEIGHT
370
-1
  9
$ENDCAPS
280
     0
  9
$JOINSTYLE
280
     0
  9
$LWDISPLAY
290
     1
  9
$INSUNITS
 70
     0
  9
$HYPERLINKBASE
  1

  9
$STYLESHEET
  1

  9
$XEDIT
290
     1
  9
$CEPSNTYPE
380
     0
  9
$PSTYLEMODE
290
     1
  9
$FINGERPRINTGUID
  2
{01801163-5BC0-459E-B9C7-2188C09ED432}
  9
$VERSIONGUID
  2
{7F326DDD-95DF-42AD-9861-A0CD9F0961F2}
  9
$EXTNAMES
290
     1
  9
$PSVPSCALE
 40
0.0
  9
$OLESTARTUP
290
     0
  9
$SORTENTS
280
   127
  9
$INDEXCTL
280
     0
  9
$HIDETEXT
280
     1
  9
$XCLIPFRAME
290
     0
  9
$HALOGAP
280
     0
  9
$OBSCOLOR
 70
   257
  9
$OBSLTYPE
280
     0
  9
$INTERSECTIONDISPLAY
280
     0
  9
$INTERSECTIONCOLOR
 70
   257
  9
$DIMASSOC
280
     2
  9
$PROJECTNAME
  1

  0
ENDSEC
  0
SECTION
  2
TABLES
  0
TABLE
  2
VPORT
  5
a2
100
AcDbSymbolTable
 70
     2
  0
VPORT
  5
a5
100
AcDbSymbolTableRecord
100
AcDbViewportTableRecord
  2
*ACTIVE
 70
     0
 10
0.000000
 20
0.000000
 11
1.000000
 21
1.000000
 12
300.000000
 22
200.000000
 13
0.000000
 23
0.000000
 14
10.000000
 24
10.000000
 15
10.000000
 25
10.000000
 16
0.000000
 26
0.000000
 36
1.000000
 17
0.000000
 27
0.000000
 37
0.000000
 40
300.000000
 41
1.600432
 42
50.000000
 43
0.000000
 44
0.000000
 50
0.000000
 51
0.000000
 71
     0
 72
   100
 73
     1
 74
     1
 75
     0
 76
     0
 77
     0
 78
     0
  0
ENDTAB
  0
TABLE
  2
LTYPE
  5
a8
100
AcDbSymbolTable
 70
    11
  0
LTYPE
  5
ab
100
AcDbSymbolTableRecord
100
AcDbLinetypeTableRecord
  2
BYBLOCK
 70
    64
  3
BYBLOCK
 72
    65
 73
     0
 40
0.000000
  0
LTYPE
  5
ae
100
AcDbSymbolTableRecord
100
AcDbLinetypeTableRecord
  2
BYLAYER
 70
    64
  3
BYLAYER
 72
    65
 73
     0
 40
0.000000
  0
LTYPE
  5
b1
100
AcDbSymbolTableRecord
100
AcDbLinetypeTableRecord
  2
CONTINUOUS
 70
    64
  3
実線
 72
    65
 73
     0
 40
0.000000
  0
LTYPE
  5
b4
100
AcDbSymbolTableRecord
100
AcDbLinetypeTableRecord
  2
DASHED
 70
    64
  3
__ __ __ __ __ __ __ __ __ __ __ __ __ __ __
 72
    65
 73
     2
 40
0.750000
 49
0.500000
 74
     0
 49
-0.250000
 74
     0
  0
LTYPE
  5
b7
100
AcDbSymbolTableRecord
100
AcDbLinetypeTableRecord
  2
HIDDEN
 70
    64
  3
_ _ _ _ _ _ _ _ _ _ _ _ _ _ _ _ _ _ _ _ _ _ _
 72
    65
 73
     2
 40
0.375000
 49
0.250000
 74
     0
 49
-0.125000
 74
     0
  0
LTYPE
  5
ba
100
AcDbSymbolTableRecord
100
AcDbLinetypeTableRecord
  2
CENTER
 70
    64
  3
____ _ ____ _ ____ _ ____ _ ____ _ ____ _ ____
 72
    65
 73
     4
 40
2.000000
 49
1.250000
 74
     0
 49
-0.250000
 74
     0
 49
0.250000
 74
     0
 49
-0.250000
 74
     0
  0
LTYPE
  5
bd
100
AcDbSymbolTableRecord
100
AcDbLinetypeTableRecord
  2
PHANTOM
 70
    64
  3
_____ _ _ _____ _ _ _____ _ _ _____ _ _ ____
 72
    65
 73
     6
 40
2.500000
 49
1.250000
 74
     0
 49
-0.250000
 74
     0
 49
0.250000
 74
     0
 49
-0.250000
 74
     0
 49
0.250000
 74
     0
 49
-0.250000
 74
     0
  0
LTYPE
  5
c0
100
AcDbSymbolTableRecord
100
AcDbLinetypeTableRecord
  2
DOT
 70
    64
  3
...............................................
 72
    65
 73
     2
 40
0.250000
 49
0.000000
 74
     0
 49
-0.250000
 74
     0
  0
LTYPE
  5
c3
100
AcDbSymbolTableRecord
100
AcDbLinetypeTableRecord
  2
DASHDOT
 70
    64
  3
__ . __ . __ . __ . __ . __ . __ . __ . __ . __
 72
    65
 73
     4
 40
1.000000
 49
0.500000
 74
     0
 49
-0.250000
 74
     0
 49
0.000000
 74
     0
 49
-0.250000
 74
     0
  0
LTYPE
  5
c6
100
AcDbSymbolTableRecord
100
AcDbLinetypeTableRecord
  2
BORDER
 70
    64
  3
__ __ . __ __ . __ __ . __ __ . __ __ . __ __
 72
    65
 73
     6
 40
1.750000
 49
0.500000
 74
     0
 49
-0.250000
 74
     0
 49
0.500000
 74
     0
 49
-0.250000
 74
     0
 49
0.000000
 74
     0
 49
-0.250000
 74
     0
  0
LTYPE
  5
c9
100
AcDbSymbolTableRecord
100
AcDbLinetypeTableRecord
  2
DIVIDE
 70
    64
  3
__ . . __ . . __ . . __ . . __ . . __ . . __
 72
    65
 73
     6
 40
1.250000
 49
0.500000
 74
     0
 49
-0.250000
 74
     0
 49
0.000000
 74
     0
 49
-0.250000
 74
     0
 49
0.000000
 74
     0
 49
-0.250000
 74
     0
  0
ENDTAB
  0
TABLE
  2
LAYER
  5
cc
100
AcDbSymbolTable
 70
     2
  0
LAYER
  5
cf
100
AcDbSymbolTableRecord
100
AcDbLayerTableRecord
  2
0
 70
     0
 62
     7
  6
CONTINUOUS
370
 65533
390
	F
  0
LAYER
  5
d2
100
AcDbSymbolTableRecord
100
AcDbLayerTableRecord
  2
B
 70
     0
 62
     7
  6
CONTINUOUS
370
 65533
390
	F
  0
LAYER
  5
d5
100
AcDbSymbolTableRecord
100
AcDbLayerTableRecord
  2
C
 70
     0
 62
     7
  6
CONTINUOUS
370
 65533
390
	F
  0
LAYER
  5
d8
100
AcDbSymbolTableRecord
100
AcDbLayerTableRecord
  2
D
 70
     0
 62
     7
  6
CONTINUOUS
370
 65533
390
	F
  0
LAYER
  5
db
100
AcDbSymbolTableRecord
100
AcDbLayerTableRecord
  2
E
 70
     0
 62
     7
  6
CONTINUOUS
370
 65533
390
	F
  0
LAYER
  5
de
100
AcDbSymbolTableRecord
100
AcDbLayerTableRecord
  2
F
 70
     0
 62
     7
  6
CONTINUOUS
370
 65533
390
	F
  0
LAYER
  5
e1
100
AcDbSymbolTableRecord
100
AcDbLayerTableRecord
  2
G
 70
     0
 62
     7
  6
CONTINUOUS
370
 65533
390
	F
  0
LAYER
  5
e4
100
AcDbSymbolTableRecord
100
AcDbLayerTableRecord
  2
H
 70
     0
 62
     7
  6
CONTINUOUS
370
 65533
390
	F
  0
LAYER
  5
e7
100
AcDbSymbolTableRecord
100
AcDbLayerTableRecord
  2
I
 70
     0
 62
     7
  6
CONTINUOUS
370
 65533
390
	F
  0
LAYER
  5
ea
100
AcDbSymbolTableRecord
100
AcDbLayerTableRecord
  2
J
 70
     0
 62
     7
  6
CONTINUOUS
370
 65533
390
	F
  0
LAYER
  5
ed
100
AcDbSymbolTableRecord
100
AcDbLayerTableRecord
  2
K
 70
     0
 62
     7
  6
CONTINUOUS
370
 65533
390
	F
  0
LAYER
  5
f0
100
AcDbSymbolTableRecord
100
AcDbLayerTableRecord
  2
L
 70
     0
 62
     7
  6
CONTINUOUS
370
 65533
390
	F
  0
LAYER
  5
f3
100
AcDbSymbolTableRecord
100
AcDbLayerTableRecord
  2
M
 70
     0
 62
     7
  6
CONTINUOUS
370
 65533
390
	F
  0
LAYER
  5
f6
100
AcDbSymbolTableRecord
100
AcDbLayerTableRecord
  2
N
 70
     0
 62
     7
  6
CONTINUOUS
370
 65533
390
	F
  0
ENDTAB
  0
TABLE
  2
STYLE
  5
f9
100
AcDbSymbolTable
 70
     2
  0
STYLE
  5
fc
100
AcDbSymbolTableRecord
100
AcDbTextStyleTableRecord
  2
STANDARD
 70
     0
 40
0.000000
 41
0.500000
 50
0.000000
 71
     0
 42
0.300000
  3
txt
  4

  0
STYLE
  5
ff
100
AcDbSymbolTableRecord
100
AcDbTextStyleTableRecord
  2
BIGFONT
 70
    64
 40
0.000000
 41
1.000000
 50
0.000000
 71
     0
 42
0.200000
  3

  4
bigfont
  0
ENDTAB
  0
TABLE
  2
VIEW
  5
102
100
AcDbSymbolTable
 70
     0
  0
ENDTAB
  0
TABLE
  2
UCS
  5
105
100
AcDbSymbolTable
 70
     0
  0
ENDTAB
  0
TABLE
  2
APPID
  5
108
100
AcDbSymbolTable
 70
     3
  0
APPID
  5
10b
100
AcDbSymbolTableRecord
100
AcDbRegAppTableRecord
  2
ACAD
 70
     0
  0
APPID
  5
10e
100
AcDbSymbolTableRecord
100
AcDbRegAppTableRecord
  2
CONTENTTABDATA
 70
     0
  0
APPID
  5
111
100
AcDbSymbolTableRecord
100
AcDbRegAppTableRecord
  2
CONTENTCURRENTTAB
 70
     0
  0
ENDTAB
  0
TABLE
  2
DIMSTYLE
  5
114
330
     0
100
AcDbSymbolTable
 70
     2
100
AcDbDimStyleTable
 70
     1
  0
DIMSTYLE
105
117
100
AcDbSymbolTableRecord
100
AcDbDimStyleTableRecord
  2
STANDARD
 70
     0
  3

  4

  5

  6

  7

 40
1.000000
 41
0.180000
 42
0.062500
 43
0.380000
 44
0.180000
 45
0.000000
 46
0.000000
 47
0.000000
 48
0.000000
140
0.180000
141
0.090000
142
0.000000
143
25.400000
144
1.000000
145
0.000000
146
1.000000
147
0.090000
 71
     0
 72
     0
 73
     1
 74
     1
 75
     0
 76
     0
 77
     0
 78
     0
170
     0
171
     2
172
     0
173
     0
174
     0
175
     0
176
     0
177
     0
178
     0
270
     2
271
     4
272
     4
273
     2
274
     2
340
fc
275
     0
280
     0
281
     0
282
     0
283
     1
284
     0
285
     0
286
     0
287
     3
288
     0
  0
ENDTAB
  0
TABLE
  2
BLOCK_RECORD
  5
11a
100
AcDbSymbolTable
 70
     0
  0
BLOCK_RECORD
  5
11d
100
AcDbSymbolTableRecord
100
AcDbBlockTableRecord
  2
*MODEL_SPACE
  0
BLOCK_RECORD
  5
120
100
AcDbSymbolTableRecord
100
AcDbBlockTableRecord
  2
*PAPER_SPACE
  0
ENDTAB
  0
ENDSEC
  0
SECTION
  2
BLOCKS
  0
BLOCK
  5
123
330
124
100
AcDbEntity
  8
0
100
AcDbBlockBegin
  2
*Model_Space
 70
     0
 10
0.000000
 20
0.000000
 30
0.000000
  3
*Model_Space
  1
 
  0
ENDBLK
  5
126
330
124
100
AcDbEntity
  8
0
100
AcDbBlockEnd
  0
BLOCK
  5
129
330
12a
100
AcDbEntity
 67
     1
  8
0
100
AcDbBlockBegin
  2
*Paper_Space
 70
     0
 10
0.000000
 20
0.000000
 30
0.000000
  3
*Paper_Space
  1
 
  0
ENDBLK
  5
12c
330
12d
100
AcDbEntity
 67
     1
  8
0
100
AcDbBlockEnd
  0
ENDSEC
  0
SECTION
  2
ENTITIES
  0
CIRCLE
  5
12f
100
AcDbEntity
  8
0
370
    20
100
AcDbCircle
 10
30.125000
 20
268.525000
 40
2.850000
  0
CIRCLE
  5
132
100
AcDbEntity
  8
0
370
    20
100
AcDbCircle
 10
30.125000
 20
268.525000
 40
4.100000
  0
CIRCLE
  5
135
100
AcDbEntity
  8
0
370
    20
100
AcDbCircle
 10
41.250000
 20
265.350000
 40
2.850000
  0
CIRCLE
  5
138
100
AcDbEntity
  8
0
370
    20
100
AcDbCircle
 10
41.250000
 20
265.350000
 40
4.100000
  0
LWPOLYLINE
  5
13b
100
AcDbEntity
  8
0
100
AcDbPolyline
 90
     4
 70
     1
 43
0.200000
 10
25.050000
 20
263.125000
 10
25.050000
 20
230.450000
 10
35.200000
 20
230.450000
 10
35.200000
 20
263.125000
  0
CIRCLE
  5
146
100
AcDbEntity
  8
0
370
    20
100
AcDbCircle
 10
43.925000
 20
240.925000
 40
1.900000
  0
CIRCLE
  5
149
100
AcDbEntity
  8
0
370
    20
100
AcDbCircle
 10
43.925000
 20
240.925000
 40
2.225000
  0
CIRCLE
  5
14c
100
AcDbEntity
  8
0
370
    20
100
AcDbCircle
 10
43.925000
 20
246.300000
 40
1.900000
  0
CIRCLE
  5
14f
100
AcDbEntity
  8
0
370
    20
100
AcDbCircle
 10
43.925000
 20
246.300000
 40
2.250000
  0
CIRCLE
  5
152
100
AcDbEntity
  8
0
370
    20
100
AcDbCircle
 10
47.575000
 20
243.775000
 40
1.250000
  0
ARC
  5
155
100
AcDbEntity
  8
0
370
    40
100
AcDbCircle
 10
51.375000
 20
227.600000
 40
1.900000
100
AcDbArc
 50
180.000000
 51
360.000000
  0
ARC
  5
158
100
AcDbEntity
  8
0
370
    40
100
AcDbCircle
 10
51.375000
 20
240.925000
 40
1.900000
100
AcDbArc
 50
360.000000
 51
180.000000
  0
LINE
  5
15b
100
AcDbEntity
  8
0
370
    20
100
AcDbLine
 10
25.050000
 20
230.450000
 11
20.300000
 21
222.525000
  0
LWPOLYLINE
  5
15e
100
AcDbEntity
  8
0
100
AcDbPolyline
 90
     4
 70
     1
 43
0.200000
 10
19.650000
 20
221.875000
 10
19.650000
 20
222.525000
 10
22.825000
 20
222.525000
 10
22.825000
 20
221.875000
  0
LINE
  5
169
100
AcDbEntity
  8
0
370
    40
100
AcDbLine
 10
49.475000
 20
227.600000
 11
49.475000
 21
240.925000
  0
LINE
  5
16c
100
AcDbEntity
  8
0
370
    40
100
AcDbLine
 10
53.275000
 20
240.925000
 11
53.275000
 21
227.600000
  0
LINE
  5
16f
100
AcDbEntity
  8
0
370
    20
100
AcDbLine
 10
29.500000
 20
225.375000
 11
29.500000
 21
230.450000
  0
LINE
  5
172
100
AcDbEntity
  8
0
370
    40
100
AcDbLine
 10
29.175000
 20
225.300000
 11
30.125000
 21
225.375000
  0
POINT
  5
175
100
AcDbEntity
  8
0
100
AcDbPoint
 10
37.425000
 20
231.725000
  0
ARC
  5
178
100
AcDbEntity
  8
0
370
    40
100
AcDbCircle
 10
37.425000
 20
231.725000
 40
0.950000
100
AcDbArc
 50
360.000000
 51
353.000000
  0
POINT
  5
17b
100
AcDbEntity
  8
0
100
AcDbPoint
 10
23.150000
 20
261.850000
  0
ARC
  5
17e
100
AcDbEntity
  8
0
370
    40
100
AcDbCircle
 10
23.150000
 20
261.850000
 40
0.950000
100
AcDbArc
 50
360.000000
 51
353.000000
  0
POINT
  5
181
100
AcDbEntity
  8
0
100
AcDbPoint
 10
23.150000
 20
259.325000
  0
ARC
  5
184
100
AcDbEntity
  8
0
370
    40
100
AcDbCircle
 10
23.150000
 20
259.325000
 40
0.950000
100
AcDbArc
 50
360.000000
 51
353.000000
  0
POINT
  5
187
100
AcDbEntity
  8
0
100
AcDbPoint
 10
43.300000
 20
259.325000
  0
ARC
  5
18a
100
AcDbEntity
  8
0
370
    40
100
AcDbCircle
 10
43.300000
 20
259.325000
 40
0.950000
100
AcDbArc
 50
360.000000
 51
353.000000
  0
LWPOLYLINE
  5
18d
100
AcDbEntity
  8
0
100
AcDbPolyline
 90
     3
 70
     0
 43
0.200000
 10
66.600000
 20
223.150000
 10
65.350000
 20
223.150000
 10
65.350000
 20
215.225000
  0
LWPOLYLINE
  5
196
100
AcDbEntity
  8
0
100
AcDbPolyline
 90
     7
 70
     0
 43
0.200000
 10
66.600000
 20
207.925000
 10
63.750000
 20
207.925000
 10
62.800000
 20
207.275000
 10
62.800000
 20
204.425000
 10
63.450000
 20
204.425000
 10
63.450000
 20
205.375000
 10
66.600000
 20
205.375000
  0
LWPOLYLINE
  5
1a7
100
AcDbEntity
  8
0
100
AcDbPolyline
 90
     8
 70
     0
 43
0.600000
 10
63.750000
 20
205.375000
 10
63.750000
 20
204.425000
 10
62.800000
 20
204.125000
 10
62.175000
 20
201.250000
 10
62.175000
 20
174.600000
 10
62.800000
 20
172.400000
 10
63.750000
 20
171.750000
 10
63.750000
 20
171.125000
  0
LWPOLYLINE
  5
1ba
100
AcDbEntity
  8
0
100
AcDbPolyline
 90
     7
 70
     0
 43
0.200000
 10
66.600000
 20
168.275000
 10
63.750000
 20
168.275000
 10
62.800000
 20
168.575000
 10
62.800000
 20
171.750000
 10
63.450000
 20
171.750000
 10
63.450000
 20
170.800000
 10
66.600000
 20
170.800000
  0
LINE
  5
1cb
100
AcDbEntity
  8
0
370
    40
100
AcDbLine
 10
64.075000
 20
206.025000
 11
64.075000
 21
201.100000
  0
LINE
  5
1ce
100
AcDbEntity
  8
0
370
    40
100
AcDbLine
 10
64.075000
 20
200.400000
 11
64.075000
 21
197.575000
  0
LINE
  5
1d1
100
AcDbEntity
  8
0
370
    40
100
AcDbLine
 10
64.075000
 20
196.875000
 11
64.075000
 21
194.050000
  0
LINE
  5
1d4
100
AcDbEntity
  8
0
370
    40
100
AcDbLine
 10
64.075000
 20
193.425000
 11
64.075000
 21
190.775000
  0
LINE
  5
1d7
100
AcDbEntity
  8
0
370
    40
100
AcDbLine
 10
64.075000
 20
190.150000
 11
64.075000
 21
187.725000
  0
LINE
  5
1da
100
AcDbEntity
  8
0
370
    40
100
AcDbLine
 10
64.075000
 20
187.025000
 11
64.075000
 21
184.525000
  0
LINE
  5
1dd
100
AcDbEntity
  8
0
370
    40
100
AcDbLine
 10
64.075000
 20
183.975000
 11
64.075000
 21
181.250000
  0
LINE
  5
1e0
100
AcDbEntity
  8
0
370
    40
100
AcDbLine
 10
64.075000
 20
180.625000
 11
64.075000
 21
177.900000
  0
LINE
  5
1e3
100
AcDbEntity
  8
0
370
    40
100
AcDbLine
 10
64.075000
 20
177.275000
 11
64.075000
 21
175.300000
  0
LINE
  5
1e6
100
AcDbEntity
  8
0
370
    40
100
AcDbLine
 10
64.075000
 20
174.675000
 11
64.075000
 21
170.175000
  0
LWPOLYLINE
  5
1e9
100
AcDbEntity
  8
0
100
AcDbPolyline
 90
     5
 70
     0
 43
0.400000
 10
38.050000
 20
231.725000
 10
45.675000
 20
231.725000
 10
45.675000
 20
224.725000
 10
64.075000
 20
224.725000
 10
64.075000
 20
215.500000
  0
LWPOLYLINE
  5
1f6
100
AcDbEntity
  8
0
100
AcDbPolyline
 90
     5
 70
     0
 43
0.200000
 10
69.150000
 20
215.525000
 10
69.150000
 20
274.850000
 10
36.150000
 20
274.850000
 10
36.150000
 20
261.850000
 10
35.200000
 20
261.850000
  0
POINT
  5
203
100
AcDbEntity
  8
0
100
AcDbPoint
 10
47.575000
 20
246.625000
  0
LWPOLYLINE
  5
206
100
AcDbEntity
  8
0
  6
DOT
 62
     7
100
AcDbPolyline
 90
     3
 70
     0
 43
0.200000
 10
47.575000
 20
247.250000
 10
47.575000
 20
259.325000
 10
44.075000
 20
259.325000
  0
LWPOLYLINE
  5
20f
100
AcDbEntity
  8
0
100
AcDbPolyline
 90
     3
 70
     1
 43
0.200000
 10
13.000000
 20
271.050000
 10
17.425000
 20
271.050000
 10
15.225000
 20
268.200000
  0
LWPOLYLINE
  5
218
100
AcDbEntity
  8
0
100
AcDbPolyline
 90
     3
 70
     0
 43
0.200000
 10
15.225000
 20
268.200000
 10
15.225000
 20
259.325000
 10
22.200000
 20
259.325000
  0
LINE
  5
221
100
AcDbEntity
  8
0
370
    40
100
AcDbLine
 10
35.200000
 20
259.325000
 11
42.175000
 21
259.325000
  0
LINE
  5
224
100
AcDbEntity
  8
0
370
    20
100
AcDbLine
 10
40.925000
 20
261.225000
 11
40.925000
 21
259.325000
  0
LINE
  5
227
100
AcDbEntity
  8
0
370
    40
100
AcDbLine
 10
30.125000
 20
264.400000
 11
30.125000
 21
263.125000
  0
LINE
  5
22a
100
AcDbEntity
  8
0
370
    40
100
AcDbLine
 10
41.250000
 20
261.225000
 11
41.250000
 21
259.325000
  0
LINE
  5
22d
100
AcDbEntity
  8
0
370
    40
100
AcDbLine
 10
23.925000
 20
259.325000
 11
25.050000
 21
259.325000
  0
LINE
  5
230
100
AcDbEntity
  8
0
370
    40
100
AcDbLine
 10
25.050000
 20
261.850000
 11
23.925000
 21
261.850000
  0
LINE
  5
233
100
AcDbEntity
  8
0
370
    40
100
AcDbLine
 10
22.200000
 20
261.850000
 11
21.550000
 21
261.850000
  0
LINE
  5
236
100
AcDbEntity
  8
0
370
    40
100
AcDbLine
 10
36.150000
 20
261.850000
 11
35.200000
 21
261.850000
  0
LINE
  5
239
100
AcDbEntity
  8
0
370
    40
100
AcDbLine
 10
44.075000
 20
259.325000
 11
45.350000
 21
259.325000
  0
LWPOLYLINE
  5
23c
100
AcDbEntity
  8
0
100
AcDbPolyline
 90
     3
 70
     0
 43
0.200000
 10
29.500000
 20
229.175000
 10
26.000000
 20
229.175000
 10
22.200000
 20
222.525000
  0
LINE
  5
245
100
AcDbEntity
  8
0
370
    20
100
AcDbLine
 10
35.200000
 20
230.450000
 11
39.950000
 21
222.525000
  0
LWPOLYLINE
  5
248
100
AcDbEntity
  8
0
100
AcDbPolyline
 90
     4
 70
     1
 43
0.200000
 10
40.600000
 20
221.875000
 10
40.600000
 20
222.525000
 10
37.425000
 20
222.525000
 10
37.425000
 20
221.875000
  0
LINE
  5
253
100
AcDbEntity
  8
0
370
    20
100
AcDbLine
 10
30.750000
 20
225.375000
 11
30.750000
 21
230.450000
  0
LINE
  5
256
100
AcDbEntity
  8
0
370
    40
100
AcDbLine
 10
30.125000
 20
225.375000
 11
31.075000
 21
225.375000
  0
LWPOLYLINE
  5
259
100
AcDbEntity
  8
0
100
AcDbPolyline
 90
     3
 70
     0
 43
0.200000
 10
30.750000
 20
229.175000
 10
34.250000
 20
229.175000
 10
38.050000
 20
222.525000
  0
LWPOLYLINE
  5
262
100
AcDbEntity
  8
0
100
AcDbPolyline
 90
     3
 70
     0
 43
0.200000
 10
35.200000
 20
262.175000
 10
31.725000
 20
262.175000
 10
31.725000
 20
263.125000
  0
LINE
  5
26b
100
AcDbEntity
  8
0
370
    20
100
AcDbLine
 10
25.050000
 20
261.225000
 11
35.200000
 21
261.225000
  0
LWPOLYLINE
  5
26e
100
AcDbEntity
  8
0
100
AcDbPolyline
 90
     3
 70
     0
 43
0.200000
 10
25.050000
 20
262.175000
 10
28.550000
 20
262.175000
 10
28.550000
 20
263.125000
  0
LINE
  5
277
100
AcDbEntity
  8
0
370
    20
100
AcDbLine
 10
25.050000
 20
258.675000
 11
26.625000
 21
258.675000
  0
LINE
  5
27a
100
AcDbEntity
  8
0
370
    20
100
AcDbLine
 10
25.050000
 20
259.625000
 11
26.625000
 21
259.625000
  0
LWPOLYLINE
  5
27d
100
AcDbEntity
  8
0
100
AcDbPolyline
 90
     3
 70
     0
 43
0.200000
 10
26.625000
 20
259.625000
 10
26.625000
 20
260.275000
 10
30.125000
 20
260.275000
  0
LWPOLYLINE
  5
286
100
AcDbEntity
  8
0
100
AcDbPolyline
 90
     7
 70
     0
 43
0.200000
 10
26.625000
 20
258.675000
 10
26.625000
 20
257.725000
 10
25.675000
 20
257.725000
 10
25.675000
 20
232.025000
 10
26.625000
 20
232.025000
 10
26.625000
 20
231.075000
 10
30.125000
 20
231.075000
  0
LINE
  5
297
100
AcDbEntity
  8
0
370
    20
100
AcDbLine
 10
35.200000
 20
258.675000
 11
33.625000
 21
258.675000
  0
LINE
  5
29a
100
AcDbEntity
  8
0
370
    20
100
AcDbLine
 10
35.200000
 20
259.625000
 11
33.625000
 21
259.625000
  0
LWPOLYLINE
  5
29d
100
AcDbEntity
  8
0
100
AcDbPolyline
 90
     3
 70
     0
 43
0.200000
 10
33.625000
 20
259.625000
 10
33.625000
 20
260.275000
 10
30.125000
 20
260.275000
  0
LWPOLYLINE
  5
2a6
100
AcDbEntity
  8
0
100
AcDbPolyline
 90
     7
 70
     0
 43
0.200000
 10
33.625000
 20
258.675000
 10
33.625000
 20
257.725000
 10
34.575000
 20
257.725000
 10
34.575000
 20
232.025000
 10
33.625000
 20
232.025000
 10
33.625000
 20
231.075000
 10
30.125000
 20
231.075000
  0
LINE
  5
2b7
100
AcDbEntity
  8
0
370
    20
100
AcDbLine
 10
29.175000
 20
258.050000
 11
29.175000
 21
232.675000
  0
LINE
  5
2ba
100
AcDbEntity
  8
0
370
    20
100
AcDbLine
 10
31.075000
 20
258.050000
 11
31.075000
 21
232.675000
  0
ARC
  5
2bd
100
AcDbEntity
  8
0
370
    20
100
AcDbCircle
 10
30.125000
 20
232.350000
 40
0.950000
100
AcDbArc
 50
172.000000
 51
7.000000
  0
ARC
  5
2c0
100
AcDbEntity
  8
0
370
    20
100
AcDbCircle
 10
30.125000
 20
258.375000
 40
0.950000
100
AcDbArc
 50
353.000000
 51
188.000000
  0
LWPOLYLINE
  5
2c3
100
AcDbEntity
  8
0
  6
DOT
 62
     7
100
AcDbPolyline
 90
     3
 70
     0
 43
0.200000
 10
25.675000
 20
252.975000
 10
26.950000
 20
252.025000
 10
30.125000
 20
252.025000
  0
LWPOLYLINE
  5
2cc
100
AcDbEntity
  8
0
  6
DOT
 62
     7
100
AcDbPolyline
 90
     3
 70
     0
 43
0.200000
 10
34.575000
 20
252.975000
 10
33.300000
 20
252.025000
 10
30.125000
 20
252.025000
  0
LINE
  5
2d5
100
AcDbEntity
  8
0
370
    40
100
AcDbLine
 10
36.475000
 20
231.725000
 11
33.625000
 21
231.725000
  0
LWPOLYLINE
  5
2d8
100
AcDbEntity
  8
0
100
AcDbPolyline
 90
     4
 70
     1
 43
0.400000
 10
50.425000
 20
245.050000
 10
50.425000
 20
242.825000
 10
52.325000
 20
242.825000
 10
52.325000
 20
245.050000
  0
LINE
  5
2e3
100
AcDbEntity
  8
0
370
    40
100
AcDbLine
 10
46.375000
 20
244.500000
 11
45.675000
 21
245.000000
  0
LINE
  5
2e6
100
AcDbEntity
  8
0
370
    40
100
AcDbLine
 10
46.525000
 20
242.975000
 11
45.675000
 21
242.175000
  0
LINE
  5
2e9
100
AcDbEntity
  8
0
370
    40
100
AcDbLine
 10
47.575000
 20
246.000000
 11
47.575000
 21
245.050000
  0
LINE
  5
2ec
100
AcDbEntity
  8
0
370
    40
100
AcDbLine
 10
48.525000
 20
243.775000
 11
50.425000
 21
243.775000
  0
LINE
  5
2ef
100
AcDbEntity
  8
0
370
    40
100
AcDbLine
 10
51.375000
 20
245.050000
 11
51.375000
 21
246.000000
  0
LINE
  5
2f2
100
AcDbEntity
  8
0
370
    40
100
AcDbLine
 10
50.750000
 20
246.000000
 11
52.025000
 21
246.000000
  0
LINE
  5
2f5
100
AcDbEntity
  8
0
370
    20
100
AcDbLine
 10
51.075000
 20
245.050000
 11
51.075000
 21
242.825000
  0
LINE
  5
2f8
100
AcDbEntity
  8
0
370
    20
100
AcDbLine
 10
51.700000
 20
245.050000
 11
51.700000
 21
242.825000
  0
LINE
  5
2fb
100
AcDbEntity
  8
0
370
    60
100
AcDbLine
 10
64.075000
 20
204.750000
 11
64.075000
 21
206.025000
  0
LINE
  5
2fe
100
AcDbEntity
  8
0
370
    20
100
AcDbLine
 10
65.350000
 20
223.150000
 11
65.350000
 21
232.025000
  0
LWPOLYLINE
  5
301
100
AcDbEntity
  8
0
100
AcDbPolyline
 90
     3
 70
     0
 43
0.200000
 10
66.600000
 20
223.150000
 10
67.875000
 20
223.150000
 10
67.875000
 20
215.225000
  0
LINE
  5
30a
100
AcDbEntity
  8
0
370
    20
100
AcDbLine
 10
67.875000
 20
223.150000
 11
67.875000
 21
232.025000
  0
LWPOLYLINE
  5
30d
100
AcDbEntity
  8
0
100
AcDbPolyline
 90
     7
 70
     0
 43
0.200000
 10
66.600000
 20
207.925000
 10
69.475000
 20
207.925000
 10
70.425000
 20
207.275000
 10
70.425000
 20
204.425000
 10
69.775000
 20
204.425000
 10
69.775000
 20
205.375000
 10
66.600000
 20
205.375000
  0
LWPOLYLINE
  5
31e
100
AcDbEntity
  8
0
100
AcDbPolyline
 90
     8
 70
     0
 43
0.600000
 10
69.475000
 20
205.375000
 10
69.475000
 20
204.425000
 10
70.425000
 20
204.125000
 10
71.050000
 20
201.250000
 10
71.050000
 20
174.600000
 10
70.425000
 20
172.400000
 10
69.475000
 20
171.750000
 10
69.475000
 20
171.125000
  0
LWPOLYLINE
  5
331
100
AcDbEntity
  8
0
100
AcDbPolyline
 90
     7
 70
     0
 43
0.200000
 10
66.600000
 20
168.275000
 10
69.475000
 20
168.275000
 10
70.425000
 20
168.575000
 10
70.425000
 20
171.750000
 10
69.775000
 20
171.750000
 10
69.775000
 20
170.800000
 10
66.600000
 20
170.800000
  0
LINE
  5
342
100
AcDbEntity
  8
0
370
    40
100
AcDbLine
 10
69.150000
 20
206.025000
 11
69.150000
 21
201.025000
  0
LINE
  5
345
100
AcDbEntity
  8
0
370
    40
100
AcDbLine
 10
69.150000
 20
200.300000
 11
69.150000
 21
197.575000
  0
LINE
  5
348
100
AcDbEntity
  8
0
370
    40
100
AcDbLine
 10
69.150000
 20
196.950000
 11
69.150000
 21
194.050000
  0
LINE
  5
34b
100
AcDbEntity
  8
0
370
    40
100
AcDbLine
 10
69.150000
 20
193.425000
 11
69.150000
 21
190.850000
  0
LINE
  5
34e
100
AcDbEntity
  8
0
370
    40
100
AcDbLine
 10
69.150000
 20
190.075000
 11
69.150000
 21
187.725000
  0
LINE
  5
351
100
AcDbEntity
  8
0
370
    40
100
AcDbLine
 10
69.150000
 20
187.100000
 11
69.150000
 21
184.450000
  0
LINE
  5
354
100
AcDbEntity
  8
0
370
    40
100
AcDbLine
 10
69.150000
 20
184.050000
 11
69.150000
 21
181.175000
  0
LINE
  5
357
100
AcDbEntity
  8
0
370
    40
100
AcDbLine
 10
69.150000
 20
180.550000
 11
69.150000
 21
177.975000
  0
LINE
  5
35a
100
AcDbEntity
  8
0
370
    40
100
AcDbLine
 10
69.150000
 20
177.350000
 11
69.150000
 21
175.225000
  0
LINE
  5
35d
100
AcDbEntity
  8
0
370
    40
100
AcDbLine
 10
69.150000
 20
174.775000
 11
69.150000
 21
170.175000
  0
LINE
  5
360
100
AcDbEntity
  8
0
370
    60
100
AcDbLine
 10
69.150000
 20
204.750000
 11
69.150000
 21
206.025000
  0
LINE
  5
363
100
AcDbEntity
  8
0
370
    20
100
AcDbLine
 10
65.350000
 20
210.450000
 11
67.875000
 21
210.450000
  0
LINE
  5
366
100
AcDbEntity
  8
0
370
    60
100
AcDbLine
 10
61.225000
 20
216.650000
 11
61.225000
 21
224.075000
  0
LINE
  5
369
100
AcDbEntity
  8
0
370
    60
100
AcDbLine
 10
72.025000
 20
216.725000
 11
72.025000
 21
224.000000
  0
LWPOLYLINE
  5
36c
100
AcDbEntity
  8
0
100
AcDbPolyline
 90
    33
 70
     0
 43
0.200000
 10
59.950000
 20
214.900000
 10
59.950000
 20
214.900000
 10
59.950000
 20
214.900000
 10
59.950000
 20
214.900000
 10
59.950000
 20
214.900000
 10
59.950000
 20
214.900000
 10
59.950000
 20
214.900000
 10
59.950000
 20
214.900000
 10
59.950000
 20
214.900000
 10
59.950000
 20
214.900000
 10
59.950000
 20
214.900000
 10
62.175000
 20
215.525000
 10
62.175000
 20
215.525000
 10
62.175000
 20
215.525000
 10
62.175000
 20
215.525000
 10
62.475000
 20
215.525000
 10
62.475000
 20
215.525000
 10
63.450000
 20
215.525000
 10
63.450000
 20
215.525000
 10
63.750000
 20
215.525000
 10
63.750000
 20
215.525000
 10
64.400000
 20
215.525000
 10
66.600000
 20
214.900000
 10
66.600000
 20
214.900000
 10
66.600000
 20
214.900000
 10
66.600000
 20
214.900000
 10
66.600000
 20
214.900000
 10
66.600000
 20
214.900000
 10
66.600000
 20
214.900000
 10
66.600000
 20
214.900000
 10
66.600000
 20
214.900000
 10
66.600000
 20
214.900000
 10
66.600000
 20
214.900000
  0
LWPOLYLINE
  5
3b1
100
AcDbEntity
  8
0
100
AcDbPolyline
 90
    33
 70
     0
 43
0.200000
 10
66.600000
 20
214.900000
 10
66.600000
 20
214.900000
 10
66.600000
 20
214.900000
 10
66.600000
 20
214.900000
 10
66.600000
 20
214.900000
 10
66.600000
 20
214.900000
 10
66.600000
 20
214.900000
 10
66.600000
 20
214.900000
 10
66.600000
 20
214.900000
 10
66.600000
 20
214.900000
 10
66.600000
 20
214.900000
 10
68.825000
 20
213.950000
 10
68.825000
 20
213.950000
 10
68.825000
 20
213.950000
 10
68.825000
 20
213.950000
 10
69.150000
 20
213.950000
 10
69.150000
 20
213.950000
 10
70.100000
 20
213.950000
 10
70.100000
 20
213.950000
 10
70.425000
 20
213.950000
 10
70.425000
 20
213.950000
 10
71.050000
 20
213.950000
 10
73.275000
 20
214.900000
 10
73.275000
 20
214.900000
 10
73.275000
 20
214.900000
 10
73.275000
 20
214.900000
 10
73.275000
 20
214.900000
 10
73.275000
 20
214.900000
 10
73.275000
 20
214.900000
 10
73.275000
 20
214.900000
 10
73.275000
 20
214.900000
 10
73.275000
 20
214.900000
 10
73.275000
 20
214.900000
  0
LWPOLYLINE
  5
3f6
100
AcDbEntity
  8
0
100
AcDbPolyline
 90
    33
 70
     0
 43
0.200000
 10
59.950000
 20
213.625000
 10
59.950000
 20
213.625000
 10
59.950000
 20
213.625000
 10
59.950000
 20
213.625000
 10
59.950000
 20
213.625000
 10
59.950000
 20
213.625000
 10
59.950000
 20
213.625000
 10
59.950000
 20
213.625000
 10
59.950000
 20
213.625000
 10
59.950000
 20
213.625000
 10
59.950000
 20
213.625000
 10
62.175000
 20
214.275000
 10
62.175000
 20
214.275000
 10
62.175000
 20
214.275000
 10
62.175000
 20
214.275000
 10
62.475000
 20
214.275000
 10
62.475000
 20
214.275000
 10
63.450000
 20
214.275000
 10
63.450000
 20
214.275000
 10
63.750000
 20
214.275000
 10
63.750000
 20
214.275000
 10
64.400000
 20
214.275000
 10
66.600000
 20
213.625000
 10
66.600000
 20
213.625000
 10
66.600000
 20
213.625000
 10
66.600000
 20
213.625000
 10
66.600000
 20
213.625000
 10
66.600000
 20
213.625000
 10
66.600000
 20
213.625000
 10
66.600000
 20
213.625000
 10
66.600000
 20
213.625000
 10
66.600000
 20
213.625000
 10
66.600000
 20
213.625000
  0
LWPOLYLINE
  5
43b
100
AcDbEntity
  8
0
100
AcDbPolyline
 90
    33
 70
     0
 43
0.200000
 10
66.600000
 20
213.625000
 10
66.600000
 20
213.625000
 10
66.600000
 20
213.625000
 10
66.600000
 20
213.625000
 10
66.600000
 20
213.625000
 10
66.600000
 20
213.625000
 10
66.600000
 20
213.625000
 10
66.600000
 20
213.625000
 10
66.600000
 20
213.625000
 10
66.600000
 20
213.625000
 10
66.600000
 20
213.625000
 10
68.825000
 20
212.675000
 10
68.825000
 20
212.675000
 10
68.825000
 20
212.675000
 10
68.825000
 20
212.675000
 10
69.150000
 20
212.675000
 10
69.150000
 20
212.675000
 10
70.100000
 20
212.675000
 10
70.100000
 20
212.675000
 10
70.425000
 20
212.675000
 10
70.425000
 20
212.675000
 10
71.050000
 20
212.675000
 10
73.275000
 20
213.625000
 10
73.275000
 20
213.625000
 10
73.275000
 20
213.625000
 10
73.275000
 20
213.625000
 10
73.275000
 20
213.625000
 10
73.275000
 20
213.625000
 10
73.275000
 20
213.625000
 10
73.275000
 20
213.625000
 10
73.275000
 20
213.625000
 10
73.275000
 20
213.625000
 10
73.275000
 20
213.625000
  0
LWPOLYLINE
  5
480
100
AcDbEntity
  8
0
100
AcDbPolyline
 90
     4
 70
     1
 43
0.200000
 10
64.400000
 20
205.075000
 10
64.400000
 20
202.850000
 10
68.825000
 20
202.850000
 10
68.825000
 20
205.075000
  0
LWPOLYLINE
  5
48b
100
AcDbEntity
  8
0
100
AcDbPolyline
 90
     4
 70
     1
 43
0.200000
 10
64.400000
 20
171.125000
 10
64.400000
 20
172.700000
 10
68.825000
 20
172.700000
 10
68.825000
 20
171.125000
  0
LINE
  5
496
100
AcDbEntity
  8
0
370
    20
100
AcDbLine
 10
66.600000
 20
223.150000
 11
65.350000
 21
223.150000
  0
LINE
  5
499
100
AcDbEntity
  8
0
370
    20
100
AcDbLine
 10
66.600000
 20
223.150000
 11
67.875000
 21
223.150000
  0
LWPOLYLINE
  5
49c
100
AcDbEntity
  8
0
100
AcDbPolyline
 90
    33
 70
     0
 43
0.200000
 10
59.950000
 20
162.550000
 10
59.950000
 20
162.550000
 10
59.950000
 20
162.550000
 10
59.950000
 20
162.550000
 10
59.950000
 20
162.550000
 10
59.950000
 20
162.550000
 10
59.950000
 20
162.550000
 10
59.950000
 20
162.550000
 10
59.950000
 20
162.550000
 10
59.950000
 20
162.550000
 10
59.950000
 20
162.550000
 10
62.175000
 20
163.200000
 10
62.175000
 20
163.200000
 10
62.175000
 20
163.200000
 10
62.175000
 20
163.200000
 10
62.475000
 20
163.200000
 10
62.475000
 20
163.200000
 10
63.450000
 20
163.200000
 10
63.450000
 20
163.200000
 10
63.750000
 20
163.200000
 10
63.750000
 20
163.200000
 10
64.400000
 20
163.200000
 10
66.600000
 20
162.550000
 10
66.600000
 20
162.550000
 10
66.600000
 20
162.550000
 10
66.600000
 20
162.550000
 10
66.600000
 20
162.550000
 10
66.600000
 20
162.550000
 10
66.600000
 20
162.550000
 10
66.600000
 20
162.550000
 10
66.600000
 20
162.550000
 10
66.600000
 20
162.550000
 10
66.600000
 20
162.550000
  0
LWPOLYLINE
  5
4e1
100
AcDbEntity
  8
0
100
AcDbPolyline
 90
    33
 70
     0
 43
0.200000
 10
66.600000
 20
162.550000
 10
66.600000
 20
162.550000
 10
66.600000
 20
162.550000
 10
66.600000
 20
162.550000
 10
66.600000
 20
162.550000
 10
66.600000
 20
162.550000
 10
66.600000
 20
162.550000
 10
66.600000
 20
162.550000
 10
66.600000
 20
162.550000
 10
66.600000
 20
162.550000
 10
66.600000
 20
162.550000
 10
68.825000
 20
161.600000
 10
68.825000
 20
161.600000
 10
68.825000
 20
161.600000
 10
68.825000
 20
161.600000
 10
69.150000
 20
161.600000
 10
69.150000
 20
161.600000
 10
70.100000
 20
161.600000
 10
70.100000
 20
161.600000
 10
70.425000
 20
161.600000
 10
70.425000
 20
161.600000
 10
71.050000
 20
161.600000
 10
73.275000
 20
162.550000
 10
73.275000
 20
162.550000
 10
73.275000
 20
162.550000
 10
73.275000
 20
162.550000
 10
73.275000
 20
162.550000
 10
73.275000
 20
162.550000
 10
73.275000
 20
162.550000
 10
73.275000
 20
162.550000
 10
73.275000
 20
162.550000
 10
73.275000
 20
162.550000
 10
73.275000
 20
162.550000
  0
LWPOLYLINE
  5
526
100
AcDbEntity
  8
0
100
AcDbPolyline
 90
    33
 70
     0
 43
0.200000
 10
59.950000
 20
161.275000
 10
59.950000
 20
161.275000
 10
59.950000
 20
161.275000
 10
59.950000
 20
161.275000
 10
59.950000
 20
161.275000
 10
59.950000
 20
161.275000
 10
59.950000
 20
161.275000
 10
59.950000
 20
161.275000
 10
59.950000
 20
161.275000
 10
59.950000
 20
161.275000
 10
59.950000
 20
161.275000
 10
62.175000
 20
161.925000
 10
62.175000
 20
161.925000
 10
62.175000
 20
161.925000
 10
62.175000
 20
161.925000
 10
62.475000
 20
161.925000
 10
62.475000
 20
161.925000
 10
63.450000
 20
161.925000
 10
63.450000
 20
161.925000
 10
63.750000
 20
161.925000
 10
63.750000
 20
161.925000
 10
64.400000
 20
161.925000
 10
66.600000
 20
161.275000
 10
66.600000
 20
161.275000
 10
66.600000
 20
161.275000
 10
66.600000
 20
161.275000
 10
66.600000
 20
161.275000
 10
66.600000
 20
161.275000
 10
66.600000
 20
161.275000
 10
66.600000
 20
161.275000
 10
66.600000
 20
161.275000
 10
66.600000
 20
161.275000
 10
66.600000
 20
161.275000
  0
LWPOLYLINE
  5
56b
100
AcDbEntity
  8
0
100
AcDbPolyline
 90
    33
 70
     0
 43
0.200000
 10
66.600000
 20
161.275000
 10
66.600000
 20
161.275000
 10
66.600000
 20
161.275000
 10
66.600000
 20
161.275000
 10
66.600000
 20
161.275000
 10
66.600000
 20
161.275000
 10
66.600000
 20
161.275000
 10
66.600000
 20
161.275000
 10
66.600000
 20
161.275000
 10
66.600000
 20
161.275000
 10
66.600000
 20
161.275000
 10
68.825000
 20
160.325000
 10
68.825000
 20
160.325000
 10
68.825000
 20
160.325000
 10
68.825000
 20
160.325000
 10
69.150000
 20
160.325000
 10
69.150000
 20
160.325000
 10
70.100000
 20
160.325000
 10
70.100000
 20
160.325000
 10
70.425000
 20
160.325000
 10
70.425000
 20
160.325000
 10
71.050000
 20
160.325000
 10
73.275000
 20
161.275000
 10
73.275000
 20
161.275000
 10
73.275000
 20
161.275000
 10
73.275000
 20
161.275000
 10
73.275000
 20
161.275000
 10
73.275000
 20
161.275000
 10
73.275000
 20
161.275000
 10
73.275000
 20
161.275000
 10
73.275000
 20
161.275000
 10
73.275000
 20
161.275000
 10
73.275000
 20
161.275000
  0
LWPOLYLINE
  5
5b0
100
AcDbEntity
  8
0
100
AcDbPolyline
 90
     4
 70
     0
 43
0.200000
 10
62.175000
 20
161.925000
 10
62.175000
 20
158.750000
 10
71.050000
 20
158.750000
 10
71.050000
 20
160.325000
  0
LWPOLYLINE
  5
5bb
100
AcDbEntity
  8
0
100
AcDbPolyline
 90
     3
 70
     0
 43
0.400000
 10
64.075000
 20
207.925000
 10
65.025000
 20
206.650000
 10
65.025000
 20
202.850000
  0
LWPOLYLINE
  5
5c4
100
AcDbEntity
  8
0
100
AcDbPolyline
 90
     3
 70
     0
 43
0.400000
 10
69.150000
 20
207.925000
 10
68.200000
 20
206.650000
 10
68.200000
 20
202.850000
  0
LINE
  5
5cd
100
AcDbEntity
  8
0
370
    20
100
AcDbLine
 10
65.975000
 20
167.625000
 11
67.250000
 21
167.625000
  0
LINE
  5
5d0
100
AcDbEntity
  8
0
370
    20
100
AcDbLine
 10
65.100000
 20
202.450000
 11
65.100000
 21
199.600000
  0
HATCH
  5
5d3
330
F6
100
AcDbEntity
  8
0
100
AcDbHatch
 10
0.0
 20
0.0
 30
0.0
210
0.0
220
0.0
230
1.0
  2
SOLID
 70
     1
 71
     0
 91
     1
 92
     7
 72
     0
 73
     1
 93
     4
 10
65.100000
 20
199.600000
 10
64.825000
 20
200.575000
 10
65.100000
 20
200.325000
 10
65.350000
 20
200.575000
 97
     1
330
5d6
 75
     0
 76
     1
 47
0.651316
 98
     1
 10
0.0
 20
0.0
  0
LWPOLYLINE
  5
5d6
330
F6
100
AcDbEntity
  8
0
100
AcDbPolyline
 90
     4
 70
     1
 43
0.200000
 10
65.100000
 20
199.600000
 10
64.825000
 20
200.575000
 10
65.100000
 20
200.325000
 10
65.350000
 20
200.575000
  0
LINE
  5
5e1
100
AcDbEntity
  8
0
370
    20
100
AcDbLine
 10
68.125000
 20
199.350000
 11
68.125000
 21
202.200000
  0
HATCH
  5
5e4
330
F6
100
AcDbEntity
  8
0
100
AcDbHatch
 10
0.0
 20
0.0
 30
0.0
210
0.0
220
0.0
230
1.0
  2
SOLID
 70
     1
 71
     0
 91
     1
 92
     7
 72
     0
 73
     1
 93
     4
 10
68.125000
 20
202.200000
 10
68.375000
 20
201.250000
 10
68.125000
 20
201.475000
 10
67.850000
 20
201.250000
 97
     1
330
5e7
 75
     0
 76
     1
 47
0.651316
 98
     1
 10
0.0
 20
0.0
  0
LWPOLYLINE
  5
5e7
330
F6
100
AcDbEntity
  8
0
100
AcDbPolyline
 90
     4
 70
     1
 43
0.200000
 10
68.125000
 20
202.200000
 10
68.375000
 20
201.250000
 10
68.125000
 20
201.475000
 10
67.850000
 20
201.250000
  0
LINE
  5
5f2
100
AcDbEntity
  8
0
370
    20
100
AcDbLine
 10
64.650000
 20
200.700000
 11
62.800000
 21
200.700000
  0
LINE
  5
5f5
100
AcDbEntity
  8
0
370
    20
100
AcDbLine
 10
64.650000
 20
197.325000
 11
62.800000
 21
197.325000
  0
LINE
  5
5f8
100
AcDbEntity
  8
0
370
    20
100
AcDbLine
 10
64.650000
 20
193.825000
 11
62.800000
 21
193.825000
  0
LINE
  5
5fb
100
AcDbEntity
  8
0
370
    20
100
AcDbLine
 10
64.650000
 20
190.550000
 11
62.800000
 21
190.550000
  0
LINE
  5
5fe
100
AcDbEntity
  8
0
370
    20
100
AcDbLine
 10
64.650000
 20
175.000000
 11
62.800000
 21
175.000000
  0
LINE
  5
601
100
AcDbEntity
  8
0
370
    20
100
AcDbLine
 10
68.550000
 20
200.625000
 11
70.425000
 21
200.625000
  0
LINE
  5
604
100
AcDbEntity
  8
0
370
    20
100
AcDbLine
 10
68.400000
 20
197.325000
 11
70.275000
 21
197.325000
  0
LINE
  5
607
100
AcDbEntity
  8
0
370
    20
100
AcDbLine
 10
68.500000
 20
193.675000
 11
70.375000
 21
193.675000
  0
LINE
  5
60a
100
AcDbEntity
  8
0
370
    20
100
AcDbLine
 10
68.575000
 20
190.400000
 11
70.450000
 21
190.400000
  0
LINE
  5
60d
100
AcDbEntity
  8
0
370
    20
100
AcDbLine
 10
68.650000
 20
187.350000
 11
70.525000
 21
187.350000
  0
LINE
  5
610
100
AcDbEntity
  8
0
370
    20
100
AcDbLine
 10
15.850000
 20
221.875000
 11
61.225000
 21
221.875000
  0
LINE
  5
613
100
AcDbEntity
  8
0
370
    20
100
AcDbLine
 10
61.225000
 20
221.875000
 11
61.225000
 21
216.800000
  0
LINE
  5
616
100
AcDbEntity
  8
0
370
    20
100
AcDbLine
 10
61.850000
 20
214.275000
 11
61.850000
 21
181.900000
  0
LINE
  5
619
100
AcDbEntity
  8
0
370
    20
100
AcDbLine
 10
61.850000
 20
181.900000
 11
62.175000
 21
180.000000
  0
LINE
  5
61c
100
AcDbEntity
  8
0
370
    20
100
AcDbLine
 10
62.175000
 20
180.000000
 11
62.175000
 21
163.200000
  0
LINE
  5
61f
100
AcDbEntity
  8
0
370
    40
100
AcDbLine
 10
38.050000
 20
231.725000
 11
45.675000
 21
231.725000
  0
LINE
  5
622
100
AcDbEntity
  8
0
370
    40
100
AcDbLine
 10
45.675000
 20
231.725000
 11
45.675000
 21
224.725000
  0
LINE
  5
625
100
AcDbEntity
  8
0
370
    40
100
AcDbLine
 10
45.675000
 20
224.725000
 11
64.075000
 21
224.725000
  0
LINE
  5
628
100
AcDbEntity
  8
0
370
    40
100
AcDbLine
 10
69.150000
 20
274.850000
 11
36.150000
 21
274.850000
  0
LINE
  5
62b
100
AcDbEntity
  8
0
370
    40
100
AcDbLine
 10
36.150000
 20
274.850000
 11
36.150000
 21
261.850000
  0
LINE
  5
62e
100
AcDbEntity
  8
0
370
    40
100
AcDbLine
 10
36.150000
 20
261.850000
 11
35.200000
 21
261.850000
  0
LINE
  5
631
100
AcDbEntity
  8
0
370
    20
100
AcDbLine
 10
72.000000
 20
221.875000
 11
72.000000
 21
216.800000
  0
LINE
  5
634
100
AcDbEntity
  8
0
370
    20
100
AcDbLine
 10
72.000000
 20
216.800000
 11
71.375000
 21
214.575000
  0
LINE
  5
637
100
AcDbEntity
  8
0
370
    20
100
AcDbLine
 10
71.375000
 20
181.900000
 11
71.050000
 21
180.000000
  0
LINE
  5
63a
100
AcDbEntity
  8
0
370
    20
100
AcDbLine
 10
71.050000
 20
180.000000
 11
71.050000
 21
161.600000
  0
LINE
  5
63d
100
AcDbEntity
  8
0
370
    40
100
AcDbLine
 10
64.075000
 20
214.275000
 11
64.075000
 21
207.925000
  0
LINE
  5
640
100
AcDbEntity
  8
0
370
    20
100
AcDbLine
 10
65.350000
 20
223.150000
 11
65.350000
 21
215.525000
  0
LINE
  5
643
100
AcDbEntity
  8
0
370
    20
100
AcDbLine
 10
65.350000
 20
213.975000
 11
65.350000
 21
207.925000
  0
LINE
  5
646
100
AcDbEntity
  8
0
370
    20
100
AcDbLine
 10
65.975000
 20
215.125000
 11
65.975000
 21
232.350000
  0
LINE
  5
649
100
AcDbEntity
  8
0
370
    20
100
AcDbLine
 10
65.975000
 20
213.750000
 11
65.975000
 21
167.625000
  0
LINE
  5
64c
100
AcDbEntity
  8
0
370
    20
100
AcDbLine
 10
67.250000
 20
214.675000
 11
67.250000
 21
232.350000
  0
LINE
  5
64f
100
AcDbEntity
  8
0
370
    20
100
AcDbLine
 10
67.250000
 20
213.325000
 11
67.250000
 21
167.625000
  0
LINE
  5
652
100
AcDbEntity
  8
0
370
    20
100
AcDbLine
 10
67.875000
 20
214.425000
 11
67.875000
 21
223.150000
  0
LINE
  5
655
100
AcDbEntity
  8
0
370
    20
100
AcDbLine
 10
67.875000
 20
213.050000
 11
67.875000
 21
207.925000
  0
LINE
  5
658
100
AcDbEntity
  8
0
370
    40
100
AcDbLine
 10
69.150000
 20
274.850000
 11
69.150000
 21
213.950000
  0
LINE
  5
65b
100
AcDbEntity
  8
0
370
    40
100
AcDbLine
 10
69.150000
 20
212.675000
 11
69.150000
 21
207.925000
  0
LINE
  5
65e
100
AcDbEntity
  8
0
370
    20
100
AcDbLine
 10
71.375000
 20
214.575000
 11
71.375000
 21
214.275000
  0
LINE
  5
661
100
AcDbEntity
  8
0
370
    20
100
AcDbLine
 10
71.375000
 20
213.000000
 11
71.375000
 21
181.900000
  0
LWPOLYLINE
  5
664
100
AcDbEntity
  8
0
100
AcDbPolyline
 90
     3
 70
     0
 43
0.200000
 10
61.225000
 20
221.875000
 10
61.225000
 20
216.800000
 10
61.525000
 20
215.350000
  0
LWPOLYLINE
  5
66d
100
AcDbEntity
  8
0
100
AcDbPolyline
 90
     4
 70
     0
 43
0.200000
 10
61.850000
 20
214.100000
 10
61.850000
 20
181.900000
 10
62.175000
 20
180.000000
 10
62.175000
 20
169.850000
  0
LINE
  5
678
100
AcDbEntity
  8
0
370
    20
100
AcDbLine
 10
55.200000
 20
223.775000
 11
58.050000
 21
223.775000
  0
LINE
  5
67b
100
AcDbEntity
  8
0
370
    20
100
AcDbLine
 10
58.050000
 20
223.775000
 11
55.825000
 21
224.100000
  0
LINE
  5
67e
100
AcDbEntity
  8
0
370
    20
100
AcDbLine
 10
58.050000
 20
223.775000
 11
55.825000
 21
223.475000
  0
LINE
  5
681
100
AcDbEntity
  8
0
370
    20
100
AcDbLine
 10
57.400000
 20
223.775000
 11
53.925000
 21
223.775000
  0
LINE
  5
684
100
AcDbEntity
  8
0
370
    20
100
AcDbLine
 10
57.400000
 20
223.775000
 11
55.500000
 21
224.100000
  0
LINE
  5
687
100
AcDbEntity
  8
0
370
    20
100
AcDbLine
 10
57.400000
 20
223.775000
 11
55.500000
 21
223.475000
  0
LINE
  5
68a
100
AcDbEntity
  8
0
370
    20
100
AcDbLine
 10
71.375000
 20
227.900000
 11
71.375000
 21
230.775000
  0
LINE
  5
68d
100
AcDbEntity
  8
0
370
    20
100
AcDbLine
 10
71.375000
 20
230.775000
 11
71.375000
 21
226.000000
  0
LINE
  5
690
100
AcDbEntity
  8
0
370
    20
100
AcDbLine
 10
71.375000
 20
230.775000
 11
71.050000
 21
228.550000
  0
LINE
  5
693
100
AcDbEntity
  8
0
370
    20
100
AcDbLine
 10
71.375000
 20
230.775000
 11
71.675000
 21
228.550000
  0
LINE
  5
696
100
AcDbEntity
  8
0
370
    20
100
AcDbLine
 10
60.900000
 20
276.450000
 11
65.025000
 21
276.450000
  0
LINE
  5
699
100
AcDbEntity
  8
0
370
    20
100
AcDbLine
 10
60.900000
 20
276.450000
 11
63.125000
 21
276.125000
  0
LINE
  5
69c
100
AcDbEntity
  8
0
370
    20
100
AcDbLine
 10
60.900000
 20
276.450000
 11
63.125000
 21
276.775000
  0
LINE
  5
69f
100
AcDbEntity
  8
0
370
    20
100
AcDbLine
 10
62.475000
 20
276.450000
 11
60.900000
 21
276.450000
  0
LINE
  5
6a2
100
AcDbEntity
  8
0
370
    20
100
AcDbLine
 10
60.900000
 20
276.450000
 11
62.175000
 21
276.125000
  0
LINE
  5
6a5
100
AcDbEntity
  8
0
370
    20
100
AcDbLine
 10
60.900000
 20
276.450000
 11
62.175000
 21
276.775000
  0
LINE
  5
6a8
100
AcDbEntity
  8
0
370
    20
100
AcDbLine
 10
48.850000
 20
253.600000
 11
48.850000
 21
256.450000
  0
LINE
  5
6ab
100
AcDbEntity
  8
0
370
    20
100
AcDbLine
 10
48.850000
 20
256.450000
 11
48.850000
 21
251.700000
  0
LINE
  5
6ae
100
AcDbEntity
  8
0
370
    20
100
AcDbLine
 10
48.850000
 20
256.450000
 11
48.525000
 21
254.250000
  0
LINE
  5
6b1
100
AcDbEntity
  8
0
370
    20
100
AcDbLine
 10
48.850000
 20
256.450000
 11
49.150000
 21
254.250000
  0
LINE
  5
6b4
100
AcDbEntity
  8
0
370
    20
100
AcDbLine
 10
30.750000
 20
267.250000
 11
28.550000
 21
271.050000
  0
LINE
  5
6b7
100
AcDbEntity
  8
0
370
    20
100
AcDbLine
 10
28.550000
 20
271.050000
 11
29.175000
 21
268.825000
  0
LINE
  5
6ba
100
AcDbEntity
  8
0
370
    20
100
AcDbLine
 10
28.550000
 20
271.050000
 11
30.125000
 21
269.475000
  0
LINE
  5
6bd
100
AcDbEntity
  8
0
370
    20
100
AcDbLine
 10
66.600000
 20
194.600000
 11
66.600000
 21
189.825000
  0
HATCH
  5
6c0
330
F6
100
AcDbEntity
  8
0
100
AcDbHatch
 10
0.0
 20
0.0
 30
0.0
210
0.0
220
0.0
230
1.0
  2
SOLID
 70
     1
 71
     0
 91
     1
 92
     7
 72
     0
 73
     1
 93
     4
 10
66.600000
 20
194.600000
 10
66.850000
 20
193.650000
 10
66.600000
 20
193.875000
 10
66.325000
 20
193.650000
 97
     1
330
6c3
 75
     0
 76
     1
 47
0.651316
 98
     1
 10
0.0
 20
0.0
  0
LWPOLYLINE
  5
6c3
330
F6
100
AcDbEntity
  8
0
100
AcDbPolyline
 90
     4
 70
     1
 43
0.200000
 10
66.600000
 20
194.600000
 10
66.850000
 20
193.650000
 10
66.600000
 20
193.875000
 10
66.325000
 20
193.650000
  0
LINE
  5
6ce
100
AcDbEntity
  8
0
370
    20
100
AcDbLine
 10
66.600000
 20
171.125000
 11
66.600000
 21
166.350000
  0
HATCH
  5
6d1
330
F6
100
AcDbEntity
  8
0
100
AcDbHatch
 10
0.0
 20
0.0
 30
0.0
210
0.0
220
0.0
230
1.0
  2
SOLID
 70
     1
 71
     0
 91
     1
 92
     7
 72
     0
 73
     1
 93
     4
 10
66.600000
 20
171.125000
 10
66.850000
 20
170.175000
 10
66.600000
 20
170.400000
 10
66.325000
 20
170.175000
 97
     1
330
6d4
 75
     0
 76
     1
 47
0.651316
 98
     1
 10
0.0
 20
0.0
  0
LWPOLYLINE
  5
6d4
330
F6
100
AcDbEntity
  8
0
100
AcDbPolyline
 90
     4
 70
     1
 43
0.200000
 10
66.600000
 20
171.125000
 10
66.850000
 20
170.175000
 10
66.600000
 20
170.400000
 10
66.325000
 20
170.175000
  0
MTEXT
  5
6df
100
AcDbEntity
  8
0
100
AcDbMText
 10
63.600000
 20
166.150000
 40
1.856250
 41
8.910000
 71
     1
 72
     5
  1
\fＭＳ ゴシック|b0|i0|c128|p49;\T1.8854;泥水
 44
1.226497
 73
     1
  7
BIGFONT
  0
LINE
  5
6e2
100
AcDbEntity
  8
0
370
    20
100
AcDbLine
 10
41.875000
 20
263.750000
 11
39.650000
 21
267.575000
  0
LINE
  5
6e5
100
AcDbEntity
  8
0
370
    20
100
AcDbLine
 10
39.550000
 20
267.700000
 11
40.175000
 21
265.475000
  0
LINE
  5
6e8
100
AcDbEntity
  8
0
370
    20
100
AcDbLine
 10
39.550000
 20
267.700000
 11
41.150000
 21
266.100000
  0
LINE
  5
6eb
100
AcDbEntity
  8
0
370
    20
100
AcDbLine
 10
44.550000
 20
245.050000
 11
42.975000
 21
247.900000
  0
LINE
  5
6ee
100
AcDbEntity
  8
0
370
    20
100
AcDbLine
 10
42.975000
 20
247.900000
 11
43.300000
 21
246.300000
  0
LINE
  5
6f1
100
AcDbEntity
  8
0
370
    20
100
AcDbLine
 10
42.975000
 20
247.900000
 11
44.250000
 21
246.625000
  0
LINE
  5
6f4
100
AcDbEntity
  8
0
370
    20
100
AcDbLine
 10
44.550000
 20
239.650000
 11
42.975000
 21
242.500000
  0
LINE
  5
6f7
100
AcDbEntity
  8
0
370
    20
100
AcDbLine
 10
42.975000
 20
242.500000
 11
43.300000
 21
240.925000
  0
LINE
  5
6fa
100
AcDbEntity
  8
0
370
    20
100
AcDbLine
 10
42.975000
 20
242.500000
 11
44.250000
 21
241.225000
  0
MTEXT
  5
6fd
100
AcDbEntity
  8
0
100
AcDbMText
 10
44.250000
 20
272.100000
 40
1.856250
 41
13.365000
 71
     1
 72
     5
  1
\fＭＳ ゴシック|b0|i0|c128|p49;\T1.8854;圧力計
 44
1.226497
 73
     1
  7
BIGFONT
  0
MTEXT
  5
700
100
AcDbEntity
  8
0
100
AcDbMText
 10
22.675000
 20
279.400000
 40
1.856250
 41
35.640000
 71
     1
 72
     5
  1
\fＭＳ ゴシック|b0|i0|c128|p49;\T1.8854;（圧力－容積計）
 44
1.226497
 73
     1
  7
BIGFONT
  0
MTEXT
  5
703
100
AcDbEntity
  8
0
100
AcDbMText
 10
12.525000
 20
275.925000
 40
1.856250
 41
8.910000
 71
     1
 72
     5
  1
\fＭＳ ゴシック|b0|i0|c128|p49;\T1.8854;給水
 44
1.226497
 73
     1
  7
BIGFONT
  0
MTEXT
  5
706
100
AcDbEntity
  8
0
100
AcDbMText
 10
20.775000
 20
216.600000
 40
1.856250
 41
31.185000
 71
     1
 72
     5
  1
\fＭＳ ゴシック|b0|i0|c128|p49;\T1.8854;レギュレーター
 44
1.226497
 73
     1
  7
BIGFONT
  0
MTEXT
  5
709
100
AcDbEntity
  8
0
100
AcDbMText
 10
76.300000
 20
213.100000
 40
1.856250
 41
26.730000
 71
     1
 72
     5
  1
\fＭＳ ゴシック|b0|i0|c128|p49;\T1.8854;ボーリング孔
 44
1.226497
 73
     1
  7
BIGFONT
  0
MTEXT
  5
70c
100
AcDbEntity
  8
0
100
AcDbMText
 10
75.350000
 20
191.850000
 40
1.856250
 41
8.910000
 71
     1
 72
     5
  1
\fＭＳ ゴシック|b0|i0|c128|p49;\T1.8854;セル
 44
1.226497
 73
     1
  7
BIGFONT
  0
LINE
  5
70f
100
AcDbEntity
  8
0
370
    20
100
AcDbLine
 10
72.000000
 20
221.875000
 11
72.000000
 21
216.800000
  0
LINE
  5
712
100
AcDbEntity
  8
0
370
    20
100
AcDbLine
 10
72.000000
 20
216.800000
 11
71.375000
 21
214.575000
  0
LINE
  5
715
100
AcDbEntity
  8
0
370
    20
100
AcDbLine
 10
71.375000
 20
181.900000
 11
71.050000
 21
180.000000
  0
LINE
  5
718
100
AcDbEntity
  8
0
370
    20
100
AcDbLine
 10
71.050000
 20
180.000000
 11
71.050000
 21
163.500000
  0
LINE
  5
71b
100
AcDbEntity
  8
0
370
    20
100
AcDbLine
 10
71.375000
 20
214.575000
 11
71.375000
 21
214.275000
  0
LINE
  5
71e
100
AcDbEntity
  8
0
370
    20
100
AcDbLine
 10
71.375000
 20
213.000000
 11
71.375000
 21
181.900000
  0
LINE
  5
721
100
AcDbEntity
  8
0
370
    20
100
AcDbLine
 10
61.225000
 20
197.775000
 11
59.775000
 21
197.775000
  0
HATCH
  5
724
330
F6
100
AcDbEntity
  8
0
100
AcDbHatch
 10
0.0
 20
0.0
 30
0.0
210
0.0
220
0.0
230
1.0
  2
SOLID
 70
     1
 71
     0
 91
     1
 92
     7
 72
     0
 73
     1
 93
     4
 10
59.775000
 20
197.775000
 10
60.700000
 20
198.125000
 10
60.575000
 20
197.775000
 10
60.700000
 20
197.450000
 97
     1
330
727
 75
     0
 76
     1
 47
0.651316
 98
     1
 10
0.0
 20
0.0
  0
LWPOLYLINE
  5
727
330
F6
100
AcDbEntity
  8
0
100
AcDbPolyline
 90
     4
 70
     1
 43
0.200000
 10
59.775000
 20
197.775000
 10
60.700000
 20
198.125000
 10
60.575000
 20
197.775000
 10
60.700000
 20
197.450000
  0
LINE
  5
732
100
AcDbEntity
  8
0
370
    20
100
AcDbLine
 10
61.225000
 20
193.000000
 11
59.600000
 21
193.000000
  0
HATCH
  5
735
330
F6
100
AcDbEntity
  8
0
100
AcDbHatch
 10
0.0
 20
0.0
 30
0.0
210
0.0
220
0.0
230
1.0
  2
SOLID
 70
     1
 71
     0
 91
     1
 92
     7
 72
     0
 73
     1
 93
     4
 10
59.600000
 20
193.000000
 10
60.525000
 20
193.350000
 10
60.400000
 20
193.000000
 10
60.525000
 20
192.675000
 97
     1
330
738
 75
     0
 76
     1
 47
0.651316
 98
     1
 10
0.0
 20
0.0
  0
LWPOLYLINE
  5
738
330
F6
100
AcDbEntity
  8
0
100
AcDbPolyline
 90
     4
 70
     1
 43
0.200000
 10
59.600000
 20
193.000000
 10
60.525000
 20
193.350000
 10
60.400000
 20
193.000000
 10
60.525000
 20
192.675000
  0
LINE
  5
743
100
AcDbEntity
  8
0
370
    20
100
AcDbLine
 10
61.225000
 20
187.625000
 11
59.600000
 21
187.625000
  0
HATCH
  5
746
330
F6
100
AcDbEntity
  8
0
100
AcDbHatch
 10
0.0
 20
0.0
 30
0.0
210
0.0
220
0.0
230
1.0
  2
SOLID
 70
     1
 71
     0
 91
     1
 92
     7
 72
     0
 73
     1
 93
     4
 10
59.600000
 20
187.625000
 10
60.525000
 20
187.975000
 10
60.400000
 20
187.625000
 10
60.525000
 20
187.300000
 97
     1
330
749
 75
     0
 76
     1
 47
0.651316
 98
     1
 10
0.0
 20
0.0
  0
LWPOLYLINE
  5
749
330
F6
100
AcDbEntity
  8
0
100
AcDbPolyline
 90
     4
 70
     1
 43
0.200000
 10
59.600000
 20
187.625000
 10
60.525000
 20
187.975000
 10
60.400000
 20
187.625000
 10
60.525000
 20
187.300000
  0
LINE
  5
754
100
AcDbEntity
  8
0
370
    20
100
AcDbLine
 10
61.225000
 20
182.550000
 11
59.600000
 21
182.550000
  0
HATCH
  5
757
330
F6
100
AcDbEntity
  8
0
100
AcDbHatch
 10
0.0
 20
0.0
 30
0.0
210
0.0
220
0.0
230
1.0
  2
SOLID
 70
     1
 71
     0
 91
     1
 92
     7
 72
     0
 73
     1
 93
     4
 10
59.600000
 20
182.550000
 10
60.525000
 20
182.900000
 10
60.400000
 20
182.550000
 10
60.525000
 20
182.225000
 97
     1
330
75a
 75
     0
 76
     1
 47
0.651316
 98
     1
 10
0.0
 20
0.0
  0
LWPOLYLINE
  5
75a
330
F6
100
AcDbEntity
  8
0
100
AcDbPolyline
 90
     4
 70
     1
 43
0.200000
 10
59.600000
 20
182.550000
 10
60.525000
 20
182.900000
 10
60.400000
 20
182.550000
 10
60.525000
 20
182.225000
  0
LINE
  5
765
100
AcDbEntity
  8
0
370
    20
100
AcDbLine
 10
61.225000
 20
177.775000
 11
59.600000
 21
177.775000
  0
HATCH
  5
768
330
F6
100
AcDbEntity
  8
0
100
AcDbHatch
 10
0.0
 20
0.0
 30
0.0
210
0.0
220
0.0
230
1.0
  2
SOLID
 70
     1
 71
     0
 91
     1
 92
     7
 72
     0
 73
     1
 93
     4
 10
59.600000
 20
177.775000
 10
60.525000
 20
178.125000
 10
60.400000
 20
177.775000
 10
60.525000
 20
177.450000
 97
     1
330
76b
 75
     0
 76
     1
 47
0.651316
 98
     1
 10
0.0
 20
0.0
  0
LWPOLYLINE
  5
76b
330
F6
100
AcDbEntity
  8
0
100
AcDbPolyline
 90
     4
 70
     1
 43
0.200000
 10
59.600000
 20
177.775000
 10
60.525000
 20
178.125000
 10
60.400000
 20
177.775000
 10
60.525000
 20
177.450000
  0
LINE
  5
776
100
AcDbEntity
  8
0
370
    20
100
AcDbLine
 10
61.225000
 20
173.975000
 11
59.850000
 21
173.600000
  0
HATCH
  5
779
330
F6
100
AcDbEntity
  8
0
100
AcDbHatch
 10
0.0
 20
0.0
 30
0.0
210
0.0
220
0.0
230
1.0
  2
SOLID
 70
     1
 71
     0
 91
     1
 92
     7
 72
     0
 73
     1
 93
     4
 10
59.850000
 20
173.600000
 10
60.650000
 20
174.200000
 10
60.600000
 20
173.825000
 10
60.825000
 20
173.525000
 97
     1
330
77c
 75
     0
 76
     1
 47
0.651316
 98
     1
 10
0.0
 20
0.0
  0
LWPOLYLINE
  5
77c
330
F6
100
AcDbEntity
  8
0
100
AcDbPolyline
 90
     4
 70
     1
 43
0.200000
 10
59.850000
 20
173.600000
 10
60.650000
 20
174.200000
 10
60.600000
 20
173.825000
 10
60.825000
 20
173.525000
  0
LINE
  5
787
100
AcDbEntity
  8
0
370
    20
100
AcDbLine
 10
61.525000
 20
201.575000
 11
60.000000
 21
202.100000
  0
HATCH
  5
78a
330
F6
100
AcDbEntity
  8
0
100
AcDbHatch
 10
0.0
 20
0.0
 30
0.0
210
0.0
220
0.0
230
1.0
  2
SOLID
 70
     1
 71
     0
 91
     1
 92
     7
 72
     0
 73
     1
 93
     4
 10
60.000000
 20
202.100000
 10
60.975000
 20
202.125000
 10
60.750000
 20
201.850000
 10
60.775000
 20
201.475000
 97
     1
330
78d
 75
     0
 76
     1
 47
0.651316
 98
     1
 10
0.0
 20
0.0
  0
LWPOLYLINE
  5
78d
330
F6
100
AcDbEntity
  8
0
100
AcDbPolyline
 90
     4
 70
     1
 43
0.200000
 10
60.000000
 20
202.100000
 10
60.975000
 20
202.125000
 10
60.750000
 20
201.850000
 10
60.775000
 20
201.475000
  0
LINE
  5
798
100
AcDbEntity
  8
0
370
    20
100
AcDbLine
 10
72.000000
 20
197.775000
 11
74.075000
 21
197.775000
  0
HATCH
  5
79b
330
F6
100
AcDbEntity
  8
0
100
AcDbHatch
 10
0.0
 20
0.0
 30
0.0
210
0.0
220
0.0
230
1.0
  2
SOLID
 70
     1
 71
     0
 91
     1
 92
     7
 72
     0
 73
     1
 93
     4
 10
74.075000
 20
197.775000
 10
73.125000
 20
197.450000
 10
73.275000
 20
197.775000
 10
73.125000
 20
198.125000
 97
     1
330
79e
 75
     0
 76
     1
 47
0.651316
 98
     1
 10
0.0
 20
0.0
  0
LWPOLYLINE
  5
79e
330
F6
100
AcDbEntity
  8
0
100
AcDbPolyline
 90
     4
 70
     1
 43
0.200000
 10
74.075000
 20
197.775000
 10
73.125000
 20
197.450000
 10
73.275000
 20
197.775000
 10
73.125000
 20
198.125000
  0
LINE
  5
7a9
100
AcDbEntity
  8
0
370
    20
100
AcDbLine
 10
72.000000
 20
193.000000
 11
73.975000
 21
193.000000
  0
HATCH
  5
7ac
330
F6
100
AcDbEntity
  8
0
100
AcDbHatch
 10
0.0
 20
0.0
 30
0.0
210
0.0
220
0.0
230
1.0
  2
SOLID
 70
     1
 71
     0
 91
     1
 92
     7
 72
     0
 73
     1
 93
     4
 10
73.975000
 20
193.000000
 10
73.025000
 20
192.675000
 10
73.175000
 20
193.000000
 10
73.025000
 20
193.350000
 97
     1
330
7af
 75
     0
 76
     1
 47
0.651316
 98
     1
 10
0.0
 20
0.0
  0
LWPOLYLINE
  5
7af
330
F6
100
AcDbEntity
  8
0
100
AcDbPolyline
 90
     4
 70
     1
 43
0.200000
 10
73.975000
 20
193.000000
 10
73.025000
 20
192.675000
 10
73.175000
 20
193.000000
 10
73.025000
 20
193.350000
  0
LINE
  5
7ba
100
AcDbEntity
  8
0
370
    20
100
AcDbLine
 10
72.000000
 20
187.625000
 11
73.900000
 21
187.625000
  0
HATCH
  5
7bd
330
F6
100
AcDbEntity
  8
0
100
AcDbHatch
 10
0.0
 20
0.0
 30
0.0
210
0.0
220
0.0
230
1.0
  2
SOLID
 70
     1
 71
     0
 91
     1
 92
     7
 72
     0
 73
     1
 93
     4
 10
73.900000
 20
187.625000
 10
72.950000
 20
187.300000
 10
73.100000
 20
187.625000
 10
72.950000
 20
187.975000
 97
     1
330
7c0
 75
     0
 76
     1
 47
0.651316
 98
     1
 10
0.0
 20
0.0
  0
LWPOLYLINE
  5
7c0
330
F6
100
AcDbEntity
  8
0
100
AcDbPolyline
 90
     4
 70
     1
 43
0.200000
 10
73.900000
 20
187.625000
 10
72.950000
 20
187.300000
 10
73.100000
 20
187.625000
 10
72.950000
 20
187.975000
  0
LINE
  5
7cb
100
AcDbEntity
  8
0
370
    20
100
AcDbLine
 10
72.000000
 20
182.550000
 11
73.900000
 21
182.550000
  0
HATCH
  5
7ce
330
F6
100
AcDbEntity
  8
0
100
AcDbHatch
 10
0.0
 20
0.0
 30
0.0
210
0.0
220
0.0
230
1.0
  2
SOLID
 70
     1
 71
     0
 91
     1
 92
     7
 72
     0
 73
     1
 93
     4
 10
73.900000
 20
182.550000
 10
72.950000
 20
182.225000
 10
73.100000
 20
182.550000
 10
72.950000
 20
182.900000
 97
     1
330
7d1
 75
     0
 76
     1
 47
0.651316
 98
     1
 10
0.0
 20
0.0
  0
LWPOLYLINE
  5
7d1
330
F6
100
AcDbEntity
  8
0
100
AcDbPolyline
 90
     4
 70
     1
 43
0.200000
 10
73.900000
 20
182.550000
 10
72.950000
 20
182.225000
 10
73.100000
 20
182.550000
 10
72.950000
 20
182.900000
  0
LINE
  5
7dc
100
AcDbEntity
  8
0
370
    20
100
AcDbLine
 10
72.000000
 20
177.775000
 11
73.825000
 21
177.775000
  0
HATCH
  5
7df
330
F6
100
AcDbEntity
  8
0
100
AcDbHatch
 10
0.0
 20
0.0
 30
0.0
210
0.0
220
0.0
230
1.0
  2
SOLID
 70
     1
 71
     0
 91
     1
 92
     7
 72
     0
 73
     1
 93
     4
 10
73.825000
 20
177.775000
 10
72.875000
 20
177.450000
 10
73.025000
 20
177.775000
 10
72.875000
 20
178.125000
 97
     1
330
7e2
 75
     0
 76
     1
 47
0.651316
 98
     1
 10
0.0
 20
0.0
  0
LWPOLYLINE
  5
7e2
330
F6
100
AcDbEntity
  8
0
100
AcDbPolyline
 90
     4
 70
     1
 43
0.200000
 10
73.825000
 20
177.775000
 10
72.875000
 20
177.450000
 10
73.025000
 20
177.775000
 10
72.875000
 20
178.125000
  0
LINE
  5
7ed
100
AcDbEntity
  8
0
370
    20
100
AcDbLine
 10
72.000000
 20
173.975000
 11
73.750000
 21
173.525000
  0
HATCH
  5
7f0
330
F6
100
AcDbEntity
  8
0
100
AcDbHatch
 10
0.0
 20
0.0
 30
0.0
210
0.0
220
0.0
230
1.0
  2
SOLID
 70
     1
 71
     0
 91
     1
 92
     7
 72
     0
 73
     1
 93
     4
 10
73.750000
 20
173.525000
 10
72.750000
 20
173.450000
 10
72.975000
 20
173.725000
 10
72.925000
 20
174.100000
 97
     1
330
7f3
 75
     0
 76
     1
 47
0.651316
 98
     1
 10
0.0
 20
0.0
  0
LWPOLYLINE
  5
7f3
330
F6
100
AcDbEntity
  8
0
100
AcDbPolyline
 90
     4
 70
     1
 43
0.200000
 10
73.750000
 20
173.525000
 10
72.750000
 20
173.450000
 10
72.975000
 20
173.725000
 10
72.925000
 20
174.100000
  0
LINE
  5
7fe
100
AcDbEntity
  8
0
370
    20
100
AcDbLine
 10
71.675000
 20
201.575000
 11
72.975000
 21
202.175000
  0
HATCH
  5
801
330
F6
100
AcDbEntity
  8
0
100
AcDbHatch
 10
0.0
 20
0.0
 30
0.0
210
0.0
220
0.0
230
1.0
  2
SOLID
 70
     1
 71
     0
 91
     1
 92
     7
 72
     0
 73
     1
 93
     4
 10
72.975000
 20
202.175000
 10
72.250000
 20
201.475000
 10
72.225000
 20
201.850000
 10
71.975000
 20
202.100000
 97
     1
330
804
 75
     0
 76
     1
 47
0.651316
 98
     1
 10
0.0
 20
0.0
  0
LWPOLYLINE
  5
804
330
F6
100
AcDbEntity
  8
0
100
AcDbPolyline
 90
     4
 70
     1
 43
0.200000
 10
72.975000
 20
202.175000
 10
72.250000
 20
201.475000
 10
72.225000
 20
201.850000
 10
71.975000
 20
202.100000
  0
MTEXT
  5
80f
100
AcDbEntity
  8
0
100
AcDbMText
 10
19.450000
 20
254.700000
 40
1.856250
 41
31.185000
 71
     1
 72
     5
  1
\f@ＭＳ ゴシック|b0|i0|c128|p49;\T1.8854;スタンドパイプ
 44
1.226497
 73
     1
 11
-0.000000000000000
 21
-1.000000
 31
0.000000
  7
BIGFONT
  0
MTEXT
  5
812
100
AcDbEntity
  8
0
100
AcDbMText
 10
74.000000
 20
264.850000
 40
1.856250
 41
31.185000
 71
     1
 72
     5
  1
\f@ＭＳ ゴシック|b0|i0|c128|p49;\T1.8854;ナイロンパイプ
 44
1.226497
 73
     1
 11
-0.000000000000000
 21
-1.000000
 31
0.000000
  7
BIGFONT
  0
MTEXT
  5
815
100
AcDbEntity
  8
0
100
AcDbMText
 10
57.825000
 20
249.000000
 40
1.856250
 41
31.185000
 71
     1
 72
     5
  1
\f@ＭＳ ゴシック|b0|i0|c128|p49;\T1.8854;窒素ガスボンベ
 44
1.226497
 73
     1
 11
-0.000000000000000
 21
-1.000000
 31
0.000000
  7
BIGFONT
  0
MTEXT
  5
818
100
AcDbEntity
  8
0
100
AcDbMText
 10
45.850000
 20
209.925000
 40
1.856250
 41
13.365000
 71
     1
 72
     5
  1
\fＭＳ ゴシック|b0|i0|c128|p49;\T1.8854;ゾンデ
 44
1.226497
 73
     1
  7
BIGFONT
  0
LINE
  5
81b
100
AcDbEntity
  8
0
370
    20
100
AcDbLine
 10
26.950000
 20
255.200000
 11
26.950000
 21
252.325000
  0
LINE
  5
81e
100
AcDbEntity
  8
0
370
    20
100
AcDbLine
 10
26.950000
 20
252.325000
 11
26.625000
 21
254.550000
  0
LINE
  5
821
100
AcDbEntity
  8
0
370
    20
100
AcDbLine
 10
26.950000
 20
252.325000
 11
27.275000
 21
254.550000
  0
LINE
  5
824
100
AcDbEntity
  8
0
370
    20
100
AcDbLine
 10
28.225000
 20
255.200000
 11
28.225000
 21
252.325000
  0
LINE
  5
827
100
AcDbEntity
  8
0
370
    20
100
AcDbLine
 10
28.225000
 20
252.325000
 11
27.900000
 21
254.550000
  0
LINE
  5
82a
100
AcDbEntity
  8
0
370
    20
100
AcDbLine
 10
28.225000
 20
252.325000
 11
28.550000
 21
254.550000
  0
LINE
  5
82d
100
AcDbEntity
  8
0
370
    20
100
AcDbLine
 10
31.725000
 20
255.200000
 11
31.725000
 21
252.325000
  0
LINE
  5
830
100
AcDbEntity
  8
0
370
    20
100
AcDbLine
 10
31.725000
 20
252.325000
 11
31.400000
 21
254.550000
  0
LINE
  5
833
100
AcDbEntity
  8
0
370
    20
100
AcDbLine
 10
31.725000
 20
252.325000
 11
32.025000
 21
254.550000
  0
LINE
  5
836
100
AcDbEntity
  8
0
370
    20
100
AcDbLine
 10
33.300000
 20
255.200000
 11
33.300000
 21
252.325000
  0
LINE
  5
839
100
AcDbEntity
  8
0
370
    20
100
AcDbLine
 10
33.300000
 20
252.325000
 11
32.975000
 21
254.550000
  0
LINE
  5
83c
100
AcDbEntity
  8
0
370
    20
100
AcDbLine
 10
33.300000
 20
252.325000
 11
33.625000
 21
254.550000
  0
LINE
  5
83f
100
AcDbEntity
  8
0
370
    20
100
AcDbLine
 10
48.125000
 20
243.750000
 11
46.950000
 21
243.775000
  0
LWPOLYLINE
  5
842
100
AcDbEntity
  8
0
100
AcDbPolyline
 90
     3
 70
     0
 43
0.200000
 10
20.600000
 20
253.925000
 10
30.450000
 20
244.400000
 10
27.900000
 20
246.000000
  0
LWPOLYLINE
  5
84b
100
AcDbEntity
  8
0
100
AcDbPolyline
 90
     3
 70
     0
 43
0.200000
 10
41.875000
 20
216.800000
 10
47.575000
 20
242.825000
 10
47.575000
 20
239.325000
  0
LWPOLYLINE
  5
854
100
AcDbEntity
  8
0
100
AcDbPolyline
 90
     3
 70
     0
 43
0.200000
 10
56.450000
 20
208.250000
 10
62.475000
 20
203.150000
 10
60.900000
 20
205.700000
  0
LWPOLYLINE
  5
85d
100
AcDbEntity
  8
0
100
AcDbPolyline
 90
     3
 70
     0
 43
0.200000
 10
75.175000
 20
211.100000
 10
71.375000
 20
210.150000
 10
73.600000
 20
211.400000
  0
LINE
  5
866
100
AcDbEntity
  8
0
370
    20
100
AcDbLine
 10
72.000000
 20
221.875000
 11
72.000000
 21
216.800000
  0
LINE
  5
869
100
AcDbEntity
  8
0
370
    20
100
AcDbLine
 10
72.000000
 20
216.800000
 11
71.375000
 21
214.575000
  0
LINE
  5
86c
100
AcDbEntity
  8
0
370
    20
100
AcDbLine
 10
71.375000
 20
181.900000
 11
71.050000
 21
180.000000
  0
LINE
  5
86f
100
AcDbEntity
  8
0
370
    20
100
AcDbLine
 10
71.050000
 20
180.000000
 11
71.050000
 21
169.850000
  0
LINE
  5
872
100
AcDbEntity
  8
0
370
    20
100
AcDbLine
 10
71.375000
 20
214.100000
 11
71.375000
 21
214.575000
  0
LINE
  5
875
100
AcDbEntity
  8
0
370
    20
100
AcDbLine
 10
71.375000
 20
212.775000
 11
71.375000
 21
181.900000
  0
MTEXT
  5
878
100
AcDbEntity
  8
0
100
AcDbMText
 10
78.825000
 20
217.850000
 40
1.856250
 41
22.275000
 71
     1
 72
     5
  1
\fＭＳ ゴシック|b0|i0|c128|p49;\T1.8854;ケーシング
 44
1.226497
 73
     1
  7
BIGFONT
  0
LINE
  5
87b
100
AcDbEntity
  8
0
370
    20
100
AcDbLine
 10
17.750000
 20
221.875000
 11
15.850000
 21
219.975000
  0
LINE
  5
87e
100
AcDbEntity
  8
0
370
    20
100
AcDbLine
 10
19.650000
 20
221.875000
 11
17.750000
 21
219.975000
  0
LINE
  5
881
100
AcDbEntity
  8
0
370
    20
100
AcDbLine
 10
21.550000
 20
221.875000
 11
19.650000
 21
219.975000
  0
LINE
  5
884
100
AcDbEntity
  8
0
370
    20
100
AcDbLine
 10
23.475000
 20
221.875000
 11
21.550000
 21
219.975000
  0
LINE
  5
887
100
AcDbEntity
  8
0
370
    20
100
AcDbLine
 10
25.375000
 20
221.875000
 11
23.475000
 21
219.975000
  0
LINE
  5
88a
100
AcDbEntity
  8
0
370
    20
100
AcDbLine
 10
27.275000
 20
221.875000
 11
25.375000
 21
219.975000
  0
LINE
  5
88d
100
AcDbEntity
  8
0
370
    20
100
AcDbLine
 10
29.175000
 20
221.875000
 11
27.275000
 21
219.975000
  0
LINE
  5
890
100
AcDbEntity
  8
0
370
    20
100
AcDbLine
 10
31.075000
 20
221.875000
 11
29.175000
 21
219.975000
  0
LINE
  5
893
100
AcDbEntity
  8
0
370
    20
100
AcDbLine
 10
32.675000
 20
221.875000
 11
30.750000
 21
219.975000
  0
LINE
  5
896
100
AcDbEntity
  8
0
370
    20
100
AcDbLine
 10
34.575000
 20
221.875000
 11
32.675000
 21
219.975000
  0
LINE
  5
899
100
AcDbEntity
  8
0
370
    20
100
AcDbLine
 10
36.150000
 20
221.875000
 11
34.250000
 21
219.975000
  0
LINE
  5
89c
100
AcDbEntity
  8
0
370
    20
100
AcDbLine
 10
38.050000
 20
221.875000
 11
36.150000
 21
219.975000
  0
LINE
  5
89f
100
AcDbEntity
  8
0
370
    20
100
AcDbLine
 10
39.950000
 20
221.875000
 11
38.050000
 21
219.975000
  0
LINE
  5
8a2
100
AcDbEntity
  8
0
370
    20
100
AcDbLine
 10
41.875000
 20
221.875000
 11
39.950000
 21
219.975000
  0
LINE
  5
8a5
100
AcDbEntity
  8
0
370
    20
100
AcDbLine
 10
43.775000
 20
221.875000
 11
41.875000
 21
219.975000
  0
LINE
  5
8a8
100
AcDbEntity
  8
0
370
    20
100
AcDbLine
 10
45.675000
 20
221.875000
 11
43.775000
 21
219.975000
  0
LINE
  5
8ab
100
AcDbEntity
  8
0
370
    20
100
AcDbLine
 10
47.900000
 20
221.875000
 11
46.000000
 21
219.975000
  0
LINE
  5
8ae
100
AcDbEntity
  8
0
370
    20
100
AcDbLine
 10
49.800000
 20
221.875000
 11
47.900000
 21
219.975000
  0
LINE
  5
8b1
100
AcDbEntity
  8
0
370
    20
100
AcDbLine
 10
51.700000
 20
221.875000
 11
49.800000
 21
219.975000
  0
LINE
  5
8b4
100
AcDbEntity
  8
0
370
    20
100
AcDbLine
 10
53.600000
 20
221.875000
 11
51.700000
 21
219.975000
  0
LINE
  5
8b7
100
AcDbEntity
  8
0
370
    20
100
AcDbLine
 10
55.500000
 20
221.875000
 11
53.600000
 21
219.975000
  0
LINE
  5
8ba
100
AcDbEntity
  8
0
370
    20
100
AcDbLine
 10
57.400000
 20
221.875000
 11
55.500000
 21
219.975000
  0
LINE
  5
8bd
100
AcDbEntity
  8
0
370
    20
100
AcDbLine
 10
59.325000
 20
221.875000
 11
57.400000
 21
219.975000
  0
LINE
  5
8c0
100
AcDbEntity
  8
0
370
    20
100
AcDbLine
 10
60.900000
 20
221.875000
 11
59.000000
 21
219.975000
  0
LINE
  5
8c3
100
AcDbEntity
  8
0
370
    20
100
AcDbLine
 10
74.225000
 20
221.875000
 11
72.325000
 21
219.975000
  0
LINE
  5
8c6
100
AcDbEntity
  8
0
370
    20
100
AcDbLine
 10
76.125000
 20
221.875000
 11
74.225000
 21
219.975000
  0
LINE
  5
8c9
100
AcDbEntity
  8
0
370
    20
100
AcDbLine
 10
78.025000
 20
221.875000
 11
76.125000
 21
219.975000
  0
LINE
  5
8cc
100
AcDbEntity
  8
0
370
    20
100
AcDbLine
 10
79.925000
 20
221.875000
 11
78.025000
 21
219.975000
  0
LINE
  5
8cf
100
AcDbEntity
  8
0
370
    20
100
AcDbLine
 10
81.850000
 20
221.875000
 11
79.925000
 21
219.975000
  0
LINE
  5
8d2
100
AcDbEntity
  8
0
370
    20
100
AcDbLine
 10
84.050000
 20
221.875000
 11
82.150000
 21
219.975000
  0
LINE
  5
8d5
100
AcDbEntity
  8
0
370
    20
100
AcDbLine
 10
86.275000
 20
221.875000
 11
84.375000
 21
219.975000
  0
LINE
  5
8d8
100
AcDbEntity
  8
0
370
    20
100
AcDbLine
 10
88.500000
 20
221.875000
 11
86.600000
 21
219.975000
  0
LINE
  5
8db
100
AcDbEntity
  8
0
370
    20
100
AcDbLine
 10
72.000000
 20
221.875000
 11
90.075000
 21
221.875000
  0
LINE
  5
8de
100
AcDbEntity
  8
0
370
    20
100
AcDbLine
 10
90.075000
 20
221.250000
 11
88.825000
 21
219.975000
  0
LWPOLYLINE
  5
8e1
100
AcDbEntity
  8
0
100
AcDbPolyline
 90
     3
 70
     0
 43
0.200000
 10
77.400000
 20
216.800000
 10
72.650000
 20
218.700000
 10
75.500000
 20
218.400000
  0
LINE
  5
8ea
100
AcDbEntity
  8
0
370
    20
100
AcDbLine
 10
64.650000
 20
187.425000
 11
62.800000
 21
187.425000
  0
LINE
  5
8ed
100
AcDbEntity
  8
0
370
    20
100
AcDbLine
 10
64.650000
 20
184.300000
 11
62.800000
 21
184.300000
  0
LINE
  5
8f0
100
AcDbEntity
  8
0
370
    20
100
AcDbLine
 10
64.650000
 20
181.000000
 11
62.800000
 21
181.000000
  0
LINE
  5
8f3
100
AcDbEntity
  8
0
370
    20
100
AcDbLine
 10
64.650000
 20
177.575000
 11
62.800000
 21
177.575000
  0
LINE
  5
8f6
100
AcDbEntity
  8
0
370
    20
100
AcDbLine
 10
68.575000
 20
184.225000
 11
70.450000
 21
184.225000
  0
LINE
  5
8f9
100
AcDbEntity
  8
0
370
    20
100
AcDbLine
 10
68.575000
 20
180.775000
 11
70.450000
 21
180.775000
  0
LINE
  5
8fc
100
AcDbEntity
  8
0
370
    20
100
AcDbLine
 10
68.575000
 20
177.575000
 11
70.450000
 21
177.575000
  0
LINE
  5
8ff
100
AcDbEntity
  8
0
370
    20
100
AcDbLine
 10
68.575000
 20
174.925000
 11
70.450000
 21
174.925000
  0
MTEXT
  5
902
100
AcDbEntity
  8
0
100
AcDbMText
 10
15.400000
 20
157.050000
 40
2.381250
 41
102.870000
 71
     1
 72
     5
  1
\fＭＳ 明朝|b0|i0|c128|p17;\T1.0200;※全地連ボーリングハンドブックによる
 44
1.034881
 73
     1
  7
BIGFONT
  0
ENDSEC
  0
SECTION
  2
OBJECTS
  0
DICTIONARY
  5
90d
100
AcDbDictionary
281
     1
  3
ACAD_COLOR
350
90e
  3
ACAD_GROUP
350
90f
  3
ACAD_LAYOUT
350
910
  3
ACAD_MATERIAL
350
911
  3
ACAD_MLINESTYLE
350
912
  3
CONTENTDICTIONARY
350
918
  0
DICTIONARY
  5
90e
102
{ACAD_REACTORS
330
90d
102
}
330
90d
100
AcDbDictionary
281
     1
  0
DICTIONARY
  5
90f
102
{ACAD_REACTORS
330
90d
102
}
330
90d
100
AcDbDictionary
281
     1
  3
Layout1
350
919
  3
Layout2
350
91a
  3
Model
350
95d
  0
DICTIONARY
  5
910
102
{ACAD_REACTORS
330
90d
102
}
330
90d
100
AcDbDictionary
281
     1
  0
DICTIONARY
  5
911
102
{ACAD_REACTORS
330
90d
102
}
330
90d
100
AcDbDictionary
281
     1
  0
DICTIONARY
  5
912
102
{ACAD_REACTORS
330
90d
102
}
330
90d
100
AcDbDictionary
281
     1
  3
Standard
350
91b
  0
DICTIONARY
  5
913
102
{ACAD_REACTORS
330
90d
102
}
330
90d
100
AcDbDictionary
281
     1
  0
ACDBDICTIONARYWDFLT
  5
914
102
{ACAD_REACTORS
330
90d
102
}
330
90d
100
AcDbDictionary
281
     1
  3
Normal
350
95e
100
AcDbDictionaryWithDefault
340
95e
  0
DICTIONARY
  5
915
102
{ACAD_REACTORS
330
90d
102
}
330
90d
100
AcDbDictionary
281
     1
  3
Standard
350
95f
  0
DICTIONARY
  5
916
102
{ACAD_REACTORS
330
90d
102
}
330
90d
100
AcDbDictionary
281
     1
  3
CEPSNTYPE
350
91d
  3
FINGERPRINTGUID
350
91e
  3
HYPERLINKBASE
350
91f
  3
INSUNITS
350
920
  3
LAYOUTDICT
350
921
  3
LWETCUNION
350
922
  3
PLOTSETDICT
350
923
  3
PLOTSTYLNAMDICT
350
924
  3
PSVPSCALE
350
925
  3
PUCSBASE
350
926
  3
PUCSORGBACK
350
927
  3
PUCSORGBOTTOM
350
928
  3
PUCSORGFRONT
350
929
  3
PUCSORGLEFT
350
92a
  3
PUCSORGRIGHT
350
92b
  3
PUCSORGTOP
350
92c
  3
PUCSORTHOREF
350
92d
  3
PUCSORTHOVIEW
350
92e
  3
STYLESHEET
350
92f
  3
TSTACKALIGN
350
930
  3
TSTACKSIZE
350
931
  3
UCSBASE
350
932
  3
UCSORGBACK
350
933
  3
UCSORGBOTTOM
350
934
  3
UCSORGFRONT
350
935
  3
UCSORGLEFT
350
936
  3
UCSORGRIGHT
350
937
  3
UCSORGTOP
350
938
  3
UCSORTHOREF
350
939
  3
UCSORTHOVIEW
350
93a
  3
VERSIONGUID
350
93b
  0
DICTIONARY
  5
917
102
{ACAD_REACTORS
330
90d
102
}
330
90d
100
AcDbDictionary
281
     1
  3
CTABLESTYLE
350
93c
  3
DIMASSOC
350
93d
  3
HIDETEXT
350
93e
  3
PROJECTNAME
350
93f
  0
LAYOUT
  5
918
102
{ACAD_XDICTIONARY
360
c23
102
}
102
{ACAD_REACTORS
330
90e
102
}
330
90e
100
AcDbPlotSettings
  1

  2

  4

  6

 40
0.000000
 41
0.000000
 42
0.000000
 43
0.000000
 44
0.000000
 45
0.000000
 46
0.000000
 47
0.000000
 48
0.000000
 49
0.000000
140
0.000000
141
0.000000
142
1.000000
143
1.000000
 70
   688
 72
     0
 73
     0
 74
     5
  7

 75
    16
147
1.000000
148
0.000000
149
0.000000
100
AcDbLayout
  1
Layout1
 70
     1
 71
     1
 10
0.000000
 20
0.000000
 11
199.000000
 21
285.000000
 12
0.000000
 22
0.000000
 32
0.000000
 14
100000000000000000000.000000
 24
100000000000000000000.000000
 34
100000000000000000000.000000
 15
-100000000000000000000.000000
 25
-100000000000000000000.000000
 35
-100000000000000000000.000000
146
0.000000
 13
0.000000
 23
0.000000
 33
0.000000
 16
1.000000
 26
0.000000
 36
0.000000
 17
0.000000
 27
1.000000
 37
0.000000
 76
     0
330
912
  0
LAYOUT
  5
919
102
{ACAD_XDICTIONARY
360
c25
102
}
102
{ACAD_REACTORS
330
90e
102
}
330
90e
100
AcDbPlotSettings
  1

  2

  4

  6

 40
0.000000
 41
0.000000
 42
0.000000
 43
0.000000
 44
0.000000
 45
0.000000
 46
0.000000
 47
0.000000
 48
0.000000
 49
0.000000
140
0.000000
141
0.000000
142
1.000000
143
1.000000
 70
   688
 72
     0
 73
     0
 74
     5
  7

 75
    16
147
1.000000
148
0.000000
149
0.000000
100
AcDbLayout
  1
Layout2
 70
     1
 71
     2
 10
0.000000
 20
0.000000
 11
199.000000
 21
285.000000
 12
0.000000
 22
0.000000
 32
0.000000
 14
0.000000
 24
0.000000
 34
0.000000
 15
0.000000
 25
0.000000
 35
0.000000
146
0.000000
 13
0.000000
 23
0.000000
 33
0.000000
 16
1.000000
 26
0.000000
 36
0.000000
 17
0.000000
 27
1.000000
 37
0.000000
 76
     0
330
919
  0
LAYOUT
  5
91a
102
{ACAD_XDICTIONARY
360
c27
102
}
102
{ACAD_REACTORS
330
90e
102
}
330
90e
100
AcDbPlotSettings
  1

  2

  4

  6

 40
0.000000
 41
0.000000
 42
0.000000
 43
0.000000
 44
0.000000
 45
0.000000
 46
0.000000
 47
0.000000
 48
0.000000
 49
0.000000
140
0.000000
141
0.000000
142
1.000000
143
1.000000
 70
  1712
 72
     0
 73
     0
 74
     0
  7

 75
    16
147
1.000000
148
0.000000
149
0.000000
100
AcDbLayout
  1
Model
 70
     1
 71
     0
 10
0.000000
 20
0.000000
 11
199.000000
 21
285.000000
 12
0.000000
 22
0.000000
 32
0.000000
 14
0.000000
 24
0.000000
 34
0.000000
 15
0.000000
 25
0.000000
 35
0.000000
146
0.000000
 13
0.000000
 23
0.000000
 33
0.000000
 16
1.000000
 26
0.000000
 36
0.000000
 17
0.000000
 27
1.000000
 37
0.000000
 76
     0
330
91a
  0
MLINESTYLE
  5
91b
102
{ACAD_REACTORS
330
91a
102
}
330
91a
100
AcDbMlineStyle
  2
STANDARD
 70
     0
  3
 
 62
   256
 51
90.000000
 52
90.000000
 71
     2
 49
0.500000
 62
   256
  6
BYLAYER
 49
-0.500000
 62
   256
  6
BYLAYER
  0
ACDBPLACEHOLDER
  5
91c
102
{ACAD_REACTORS
330
91b
102
}
330
91b
  0
DICTIONARY
  5
c23
100
AcDbDictionary
280
     1
281
     1
  3
ACAD_XREC_ROUNDTRIP
360
c24
  0
DICTIONARY
  5
c25
100
AcDbDictionary
280
     1
281
     1
  3
ACAD_XREC_ROUNDTRIP
360
c26
  0
DICTIONARY
  5
c27
100
AcDbDictionary
280
     1
281
     1
  3
ACAD_XREC_ROUNDTRIP
360
c28
  0
XRECORD
  5
c24
102
{ACAD_REACTORS
330
c23
102
}
330
c23
100
AcDbXrecord
280
     1
102
SHADEPLOT
 70
     0
102
SHADEPLOTRESLEVEL
 70
     2
102
SHADEPLOTCUSTOMDPI
 70
   300
  0
XRECORD
  5
c26
102
{ACAD_REACTORS
330
c25
102
}
330
c25
100
AcDbXrecord
280
     1
102
SHADEPLOT
 70
     0
102
SHADEPLOTRESLEVEL
 70
     2
102
SHADEPLOTCUSTOMDPI
 70
   300
  0
XRECORD
  5
c28
102
{ACAD_REACTORS
330
c27
102
}
330
c27
100
AcDbXrecord
280
     1
102
SHADEPLOT
 70
     0
102
SHADEPLOTRESLEVEL
 70
     2
102
SHADEPLOTCUSTOMDPI
 70
   300
  0
ENDSEC
  0
EOF
