  0
SECTION
  2
HEADER
  9
$ACADVER
  1
AC1018
  9
$ACADMAINTVER
 70
     0
  9
$DWGCODEPAGE
  3
ANSI_932
  9
$INSBASE
 10
0.000000
 20
0.000000
 30
0.000000
  9
$EXTMIN
 10
0.000000
 20
0.000000
 30
0.000000
  9
$EXTMAX
 10
199.000000
 20
285.000000
 30
0.000000
  9
$LIMMIN
 10
0.000000
 20
0.000000
  9
$LIMMAX
 10
199.000000
 20
285.000000
  9
$ORTHOMODE
 70
     0
  9
$REGENMODE
 70
     1
  9
$FILLMODE
 70
     1
  9
$QTEXTMODE
 70
     0
  9
$MIRRTEXT
 70
     1
  9
$LTSCALE
 40
1.000000
  9
$ATTMODE
 70
     1
  9
$TEXTSIZE
 40
2.500000
  9
$TRACEWID
 40
1.000000
  9
$TEXTSTYLE
  7
BIGFONT
  9
$CLAYER
  8
0
  9
$CELTYPE
  6
BYLAYER
  9
$CECOLOR
 62
   256
  9
$CELTSCALE
 40
1.000000
  9
$DISPSILH
 70
     0
  9
$DIMSCALE
 40
1.000000
  9
$DIMASZ
 40
2.500000
  9
$DIMEXO
 40
0.625000
  9
$DIMDLI
 40
3.750000
  9
$DIMRND
 40
0.000000
  9
$DIMDLE
 40
0.000000
  9
$DIMEXE
 40
1.250000
  9
$DIMTP
 40
0.000000
  9
$DIMTM
 40
0.000000
  9
$DIMTXT
 40
2.500000
  9
$DIMCEN
 40
2.500000
  9
$DIMTSZ
 40
0.000000
  9
$DIMTOL
 70
     0
  9
$DIMLIM
 70
     0
  9
$DIMTIH
 70
     0
  9
$DIMTOH
 70
     0
  9
$DIMSE1
 70
     0
  9
$DIMSE2
 70
     0
  9
$DIMTAD
 70
     1
  9
$DIMZIN
 70
     8
  9
$DIMBLK
  1

  9
$DIMASO
 70
     1
  9
$DIMSHO
 70
     1
  9
$DIMPOST
  1

  9
$DIMAPOST
  1

  9
$DIMALT
 70
     0
  9
$DIMALTD
 70
     4
  9
$DIMALTF
 40
0.039400
  9
$DIMLFAC
 40
1.000000
  9
$DIMTOFL
 70
     1
  9
$DIMTVP
 40
0.000000
  9
$DIMTIX
 70
     0
  9
$DIMSOXD
 70
     0
  9
$DIMSAH
 70
     0
  9
$DIMBLK1
  1

  9
$DIMBLK2
  1

  9
$DIMSTYLE
  2
STANDARD
  9
$DIMCLRD
 70
     0
  9
$DIMCLRE
 70
     0
  9
$DIMCLRT
 70
     0
  9
$DIMTFAC
 40
1.000000
  9
$DIMGAP
 40
0.625000
  9
$DIMJUST
 70
     0
  9
$DIMSD1
 70
     0
  9
$DIMSD2
 70
     0
  9
$DIMTOLJ
 70
     1
  9
$DIMTZIN
 70
     0
  9
$DIMALTZ
 70
     0
  9
$DIMALTTZ
 70
     0
  9
$DIMUPT
 70
     0
  9
$DIMDEC
 70
     4
  9
$DIMTDEC
 70
     4
  9
$DIMALTU
 70
     8
  9
$DIMALTTD
 70
     4
  9
$DIMTXSTY
  7
STANDARD
  9
$DIMAUNIT
 70
     0
  9
$DIMADEC
 70
     0
  9
$DIMALTRND
 40
0.000000
  9
$DIMAZIN
 70
     0
  9
$DIMDSEP
 70
    46
  9
$DIMATFIT
 70
     3
  9
$DIMFRAC
 70
     0
  9
$DIMLDRBLK
  1

  9
$DIMLUNIT
 70
     2
  9
$DIMLWD
 70
-2
  9
$DIMLWE
 70
-2
  9
$DIMTMOVE
 70
     0
  9
$LUNITS
 70
     2
  9
$LUPREC
 70
     4
  9
$AXISMODE
 70
     0
  9
$SKETCHINC
 40
1.000000
  9
$FILLETRAD
 40
10.000000
  9
$AUNITS
 70
     0
  9
$AUPREC
 70
     0
  9
$MENU
  1
acad
  9
$ELEVATION
 40
0.000000
  9
$PELEVATION
 40
0.000000
  9
$THICKNESS
 40
0.000000
  9
$LIMCHECK
 70
     0
  9
$BLIPMODE
 70
     0
  9
$CHAMFERA
 40
10.000000
  9
$CHAMFERB
 40
10.000000
  9
$CHAMFERC
 40
20.000000
  9
$CHAMFERD
 40
0.000000
  9
$SKPOLY
 70
     0
  9
$TDCREATE
 40
2447851.677998
  9
$TDUCREATE
 40
2447851.677998
  9
$TDUPDATE
 40
2447851.677998
  9
$TDUUPDATE
 40
2447851.677998
  9
$TDINDWG
 40
0.000000
  9
$TDUSRTIMER
 40
0.000000
  9
$USRTIMER
 70
     1
  9
$ANGBASE
 50
0.000000
  9
$ANGDIR
 70
     0
  9
$PDMODE
 70
     0
  9
$PDSIZE
 40
0.000000
  9
$PLINEWID
 40
0.000000
  9
$SPLFRAME
 70
     0
  9
$SPLINETYPE
 70
     6
  9
$SPLINESEGS
 70
     8
  9
$HANDSEED
  5
FFFFFFF
  9
$SURFTAB1
 70
     6
  9
$SURFTAB2
 70
     6
  9
$SURFTYPE
 70
     6
  9
$SURFU
 70
     6
  9
$SURFV
 70
     6
  9
$UCSBASE
  2

  9
$UCSNAME
  2

  9
$UCSORG
 10
0.000000
 20
0.000000
 30
0.000000
  9
$UCSXDIR
 10
1.000000
 20
0.000000
 30
0.000000
  9
$UCSYDIR
 10
0.000000
 20
1.000000
 30
0.000000
  9
$UCSORTHOREF
  2

  9
$UCSORTHOVIEW
 70
     0
  9
$UCSORGTOP
 10
0.000000
 20
0.000000
 30
0.000000
  9
$UCSORGBOTTOM
 10
0.000000
 20
0.000000
 30
0.000000
  9
$UCSORGLEFT
 10
0.000000
 20
0.000000
 30
0.000000
  9
$UCSORGRIGHT
 10
0.000000
 20
0.000000
 30
0.000000
  9
$UCSORGFRONT
 10
0.000000
 20
0.000000
 30
0.000000
  9
$UCSORGBACK
 10
0.000000
 20
0.000000
 30
0.000000
  9
$PUCSBASE
  2

  9
$PUCSNAME
  2

  9
$PUCSORG
 10
0.000000
 20
0.000000
 30
0.000000
  9
$PUCSXDIR
 10
1.000000
 20
0.000000
 30
0.000000
  9
$PUCSYDIR
 10
0.000000
 20
1.000000
 30
0.000000
  9
$PUCSORTHOREF
  2

  9
$PUCSORTHOVIEW
 70
     0
  9
$PUCSORGTOP
 10
0.000000
 20
0.000000
 30
0.000000
  9
$PUCSORGBOTTOM
 10
0.000000
 20
0.000000
 30
0.000000
  9
$PUCSORGLEFT
 10
0.000000
 20
0.000000
 30
0.000000
  9
$PUCSORGRIGHT
 10
0.000000
 20
0.000000
 30
0.000000
  9
$PUCSORGFRONT
 10
0.000000
 20
0.000000
 30
0.000000
  9
$PUCSORGBACK
 10
0.000000
 20
0.000000
 30
0.000000
  9
$USERI1
 70
     0
  9
$USERI2
 70
     0
  9
$USERI3
 70
     0
  9
$USERI4
 70
     0
  9
$USERI5
 70
     0
  9
$USERR1
 40
0.000000
  9
$USERR2
 40
0.000000
  9
$USERR3
 40
0.000000
  9
$USERR4
 40
0.000000
  9
$USERR5
 40
0.000000
  9
$WORLDVIEW
 70
     1
  9
$SHADEDGE
 70
     3
  9
$SHADEDIF
 70
    70
  9
$TILEMODE
 70
     1
  9
$MAXACTVP
 70
    48
  9
$PINSBASE
 10
0.000000
 20
0.000000
 30
0.000000
  9
$PLIMCHECK
 70
     0
  9
$PEXTMIN
 10
100000000000000000000.000000
 20
100000000000000000000.000000
 30
100000000000000000000.000000
  9
$PEXTMAX
 10
-100000000000000000000.000000
 20
-100000000000000000000.000000
 30
-100000000000000000000.000000
  9
$PLIMMIN
 10
0.000000
 20
0.000000
  9
$PLIMMAX
 10
199.000000
 20
285.000000
  9
$UNITMODE
 70
     0
  9
$VISRETAIN
 70
     1
  9
$PLINEGEN
 70
     0
  9
$PSLTSCALE
 70
     1
  9
$TREEDEPTH
 70
  3020
  9
$CMLSTYLE
  2
STANDARD
  9
$CMLJUST
 70
     0
  9
$CMLSCALE
 40
20.000000
  9
$PROXYGRAPHICS
 70
     1
  9
$MEASUREMENT
 70
     1
  9
$CELWEIGHT
370
-1
  9
$ENDCAPS
280
     0
  9
$JOINSTYLE
280
     0
  9
$LWDISPLAY
290
     1
  9
$INSUNITS
 70
     0
  9
$HYPERLINKBASE
  1

  9
$STYLESHEET
  1

  9
$XEDIT
290
     1
  9
$CEPSNTYPE
380
     0
  9
$PSTYLEMODE
290
     1
  9
$FINGERPRINTGUID
  2
{01801163-5BC0-459E-B9C7-2188C09ED432}
  9
$VERSIONGUID
  2
{7F326DDD-95DF-42AD-9861-A0CD9F0961F2}
  9
$EXTNAMES
290
     1
  9
$PSVPSCALE
 40
0.0
  9
$OLESTARTUP
290
     0
  9
$SORTENTS
280
   127
  9
$INDEXCTL
280
     0
  9
$HIDETEXT
280
     1
  9
$XCLIPFRAME
290
     0
  9
$HALOGAP
280
     0
  9
$OBSCOLOR
 70
   257
  9
$OBSLTYPE
280
     0
  9
$INTERSECTIONDISPLAY
280
     0
  9
$INTERSECTIONCOLOR
 70
   257
  9
$DIMASSOC
280
     2
  9
$PROJECTNAME
  1

  0
ENDSEC
  0
SECTION
  2
TABLES
  0
TABLE
  2
VPORT
  5
a2
100
AcDbSymbolTable
 70
     2
  0
VPORT
  5
a5
100
AcDbSymbolTableRecord
100
AcDbViewportTableRecord
  2
*ACTIVE
 70
     0
 10
0.000000
 20
0.000000
 11
1.000000
 21
1.000000
 12
300.000000
 22
200.000000
 13
0.000000
 23
0.000000
 14
10.000000
 24
10.000000
 15
10.000000
 25
10.000000
 16
0.000000
 26
0.000000
 36
1.000000
 17
0.000000
 27
0.000000
 37
0.000000
 40
300.000000
 41
1.600432
 42
50.000000
 43
0.000000
 44
0.000000
 50
0.000000
 51
0.000000
 71
     0
 72
   100
 73
     1
 74
     1
 75
     0
 76
     0
 77
     0
 78
     0
  0
ENDTAB
  0
TABLE
  2
LTYPE
  5
a8
100
AcDbSymbolTable
 70
    11
  0
LTYPE
  5
ab
100
AcDbSymbolTableRecord
100
AcDbLinetypeTableRecord
  2
BYBLOCK
 70
    64
  3
BYBLOCK
 72
    65
 73
     0
 40
0.000000
  0
LTYPE
  5
ae
100
AcDbSymbolTableRecord
100
AcDbLinetypeTableRecord
  2
BYLAYER
 70
    64
  3
BYLAYER
 72
    65
 73
     0
 40
0.000000
  0
LTYPE
  5
b1
100
AcDbSymbolTableRecord
100
AcDbLinetypeTableRecord
  2
CONTINUOUS
 70
    64
  3
実線
 72
    65
 73
     0
 40
0.000000
  0
LTYPE
  5
b4
100
AcDbSymbolTableRecord
100
AcDbLinetypeTableRecord
  2
DASHED
 70
    64
  3
__ __ __ __ __ __ __ __ __ __ __ __ __ __ __
 72
    65
 73
     2
 40
0.750000
 49
0.500000
 74
     0
 49
-0.250000
 74
     0
  0
LTYPE
  5
b7
100
AcDbSymbolTableRecord
100
AcDbLinetypeTableRecord
  2
HIDDEN
 70
    64
  3
_ _ _ _ _ _ _ _ _ _ _ _ _ _ _ _ _ _ _ _ _ _ _
 72
    65
 73
     2
 40
0.375000
 49
0.250000
 74
     0
 49
-0.125000
 74
     0
  0
LTYPE
  5
ba
100
AcDbSymbolTableRecord
100
AcDbLinetypeTableRecord
  2
CENTER
 70
    64
  3
____ _ ____ _ ____ _ ____ _ ____ _ ____ _ ____
 72
    65
 73
     4
 40
2.000000
 49
1.250000
 74
     0
 49
-0.250000
 74
     0
 49
0.250000
 74
     0
 49
-0.250000
 74
     0
  0
LTYPE
  5
bd
100
AcDbSymbolTableRecord
100
AcDbLinetypeTableRecord
  2
PHANTOM
 70
    64
  3
_____ _ _ _____ _ _ _____ _ _ _____ _ _ ____
 72
    65
 73
     6
 40
2.500000
 49
1.250000
 74
     0
 49
-0.250000
 74
     0
 49
0.250000
 74
     0
 49
-0.250000
 74
     0
 49
0.250000
 74
     0
 49
-0.250000
 74
     0
  0
LTYPE
  5
c0
100
AcDbSymbolTableRecord
100
AcDbLinetypeTableRecord
  2
DOT
 70
    64
  3
...............................................
 72
    65
 73
     2
 40
0.250000
 49
0.000000
 74
     0
 49
-0.250000
 74
     0
  0
LTYPE
  5
c3
100
AcDbSymbolTableRecord
100
AcDbLinetypeTableRecord
  2
DASHDOT
 70
    64
  3
__ . __ . __ . __ . __ . __ . __ . __ . __ . __
 72
    65
 73
     4
 40
1.000000
 49
0.500000
 74
     0
 49
-0.250000
 74
     0
 49
0.000000
 74
     0
 49
-0.250000
 74
     0
  0
LTYPE
  5
c6
100
AcDbSymbolTableRecord
100
AcDbLinetypeTableRecord
  2
BORDER
 70
    64
  3
__ __ . __ __ . __ __ . __ __ . __ __ . __ __
 72
    65
 73
     6
 40
1.750000
 49
0.500000
 74
     0
 49
-0.250000
 74
     0
 49
0.500000
 74
     0
 49
-0.250000
 74
     0
 49
0.000000
 74
     0
 49
-0.250000
 74
     0
  0
LTYPE
  5
c9
100
AcDbSymbolTableRecord
100
AcDbLinetypeTableRecord
  2
DIVIDE
 70
    64
  3
__ . . __ . . __ . . __ . . __ . . __ . . __
 72
    65
 73
     6
 40
1.250000
 49
0.500000
 74
     0
 49
-0.250000
 74
     0
 49
0.000000
 74
     0
 49
-0.250000
 74
     0
 49
0.000000
 74
     0
 49
-0.250000
 74
     0
  0
ENDTAB
  0
TABLE
  2
LAYER
  5
cc
100
AcDbSymbolTable
 70
     2
  0
LAYER
  5
cf
100
AcDbSymbolTableRecord
100
AcDbLayerTableRecord
  2
0
 70
     0
 62
     7
  6
CONTINUOUS
370
 65533
390
	F
  0
LAYER
  5
d2
100
AcDbSymbolTableRecord
100
AcDbLayerTableRecord
  2
B
 70
     0
 62
     7
  6
CONTINUOUS
370
 65533
390
	F
  0
LAYER
  5
d5
100
AcDbSymbolTableRecord
100
AcDbLayerTableRecord
  2
C
 70
     0
 62
     7
  6
CONTINUOUS
370
 65533
390
	F
  0
LAYER
  5
d8
100
AcDbSymbolTableRecord
100
AcDbLayerTableRecord
  2
D
 70
     0
 62
     7
  6
CONTINUOUS
370
 65533
390
	F
  0
LAYER
  5
db
100
AcDbSymbolTableRecord
100
AcDbLayerTableRecord
  2
E
 70
     0
 62
     7
  6
CONTINUOUS
370
 65533
390
	F
  0
LAYER
  5
de
100
AcDbSymbolTableRecord
100
AcDbLayerTableRecord
  2
F
 70
     0
 62
     7
  6
CONTINUOUS
370
 65533
390
	F
  0
LAYER
  5
e1
100
AcDbSymbolTableRecord
100
AcDbLayerTableRecord
  2
G
 70
     0
 62
     7
  6
CONTINUOUS
370
 65533
390
	F
  0
LAYER
  5
e4
100
AcDbSymbolTableRecord
100
AcDbLayerTableRecord
  2
H
 70
     0
 62
     7
  6
CONTINUOUS
370
 65533
390
	F
  0
LAYER
  5
e7
100
AcDbSymbolTableRecord
100
AcDbLayerTableRecord
  2
I
 70
     0
 62
     7
  6
CONTINUOUS
370
 65533
390
	F
  0
LAYER
  5
ea
100
AcDbSymbolTableRecord
100
AcDbLayerTableRecord
  2
J
 70
     0
 62
     7
  6
CONTINUOUS
370
 65533
390
	F
  0
LAYER
  5
ed
100
AcDbSymbolTableRecord
100
AcDbLayerTableRecord
  2
K
 70
     0
 62
     7
  6
CONTINUOUS
370
 65533
390
	F
  0
LAYER
  5
f0
100
AcDbSymbolTableRecord
100
AcDbLayerTableRecord
  2
L
 70
     0
 62
     7
  6
CONTINUOUS
370
 65533
390
	F
  0
LAYER
  5
f3
100
AcDbSymbolTableRecord
100
AcDbLayerTableRecord
  2
M
 70
     0
 62
     7
  6
CONTINUOUS
370
 65533
390
	F
  0
LAYER
  5
f6
100
AcDbSymbolTableRecord
100
AcDbLayerTableRecord
  2
N
 70
     0
 62
     7
  6
CONTINUOUS
370
 65533
390
	F
  0
ENDTAB
  0
TABLE
  2
STYLE
  5
f9
100
AcDbSymbolTable
 70
     2
  0
STYLE
  5
fc
100
AcDbSymbolTableRecord
100
AcDbTextStyleTableRecord
  2
STANDARD
 70
     0
 40
0.000000
 41
0.500000
 50
0.000000
 71
     0
 42
0.300000
  3
txt
  4

  0
STYLE
  5
ff
100
AcDbSymbolTableRecord
100
AcDbTextStyleTableRecord
  2
BIGFONT
 70
    64
 40
0.000000
 41
1.000000
 50
0.000000
 71
     0
 42
0.200000
  3

  4
bigfont
  0
ENDTAB
  0
TABLE
  2
VIEW
  5
102
100
AcDbSymbolTable
 70
     0
  0
ENDTAB
  0
TABLE
  2
UCS
  5
105
100
AcDbSymbolTable
 70
     0
  0
ENDTAB
  0
TABLE
  2
APPID
  5
108
100
AcDbSymbolTable
 70
     3
  0
APPID
  5
10b
100
AcDbSymbolTableRecord
100
AcDbRegAppTableRecord
  2
ACAD
 70
     0
  0
APPID
  5
10e
100
AcDbSymbolTableRecord
100
AcDbRegAppTableRecord
  2
CONTENTTABDATA
 70
     0
  0
APPID
  5
111
100
AcDbSymbolTableRecord
100
AcDbRegAppTableRecord
  2
CONTENTCURRENTTAB
 70
     0
  0
ENDTAB
  0
TABLE
  2
DIMSTYLE
  5
114
330
     0
100
AcDbSymbolTable
 70
     2
100
AcDbDimStyleTable
 70
     1
  0
DIMSTYLE
105
117
100
AcDbSymbolTableRecord
100
AcDbDimStyleTableRecord
  2
STANDARD
 70
     0
  3

  4

  5

  6

  7

 40
1.000000
 41
0.180000
 42
0.062500
 43
0.380000
 44
0.180000
 45
0.000000
 46
0.000000
 47
0.000000
 48
0.000000
140
0.180000
141
0.090000
142
0.000000
143
25.400000
144
1.000000
145
0.000000
146
1.000000
147
0.090000
 71
     0
 72
     0
 73
     1
 74
     1
 75
     0
 76
     0
 77
     0
 78
     0
170
     0
171
     2
172
     0
173
     0
174
     0
175
     0
176
     0
177
     0
178
     0
270
     2
271
     4
272
     4
273
     2
274
     2
340
fc
275
     0
280
     0
281
     0
282
     0
283
     1
284
     0
285
     0
286
     0
287
     3
288
     0
  0
ENDTAB
  0
TABLE
  2
BLOCK_RECORD
  5
11a
100
AcDbSymbolTable
 70
     0
  0
BLOCK_RECORD
  5
11d
100
AcDbSymbolTableRecord
100
AcDbBlockTableRecord
  2
*MODEL_SPACE
  0
BLOCK_RECORD
  5
120
100
AcDbSymbolTableRecord
100
AcDbBlockTableRecord
  2
*PAPER_SPACE
  0
ENDTAB
  0
ENDSEC
  0
SECTION
  2
BLOCKS
  0
BLOCK
  5
123
330
124
100
AcDbEntity
  8
0
100
AcDbBlockBegin
  2
*Model_Space
 70
     0
 10
0.000000
 20
0.000000
 30
0.000000
  3
*Model_Space
  1
 
  0
ENDBLK
  5
126
330
124
100
AcDbEntity
  8
0
100
AcDbBlockEnd
  0
BLOCK
  5
129
330
12a
100
AcDbEntity
 67
     1
  8
0
100
AcDbBlockBegin
  2
*Paper_Space
 70
     0
 10
0.000000
 20
0.000000
 30
0.000000
  3
*Paper_Space
  1
 
  0
ENDBLK
  5
12c
330
12d
100
AcDbEntity
 67
     1
  8
0
100
AcDbBlockEnd
  0
ENDSEC
  0
SECTION
  2
ENTITIES
  0
LWPOLYLINE
  5
12f
100
AcDbEntity
  8
0
100
AcDbPolyline
 90
     4
 70
     1
 43
0.200000
 10
42.175000
 20
267.575000
 10
42.175000
 20
261.525000
 10
46.625000
 20
261.525000
 10
46.625000
 20
267.575000
  0
LWPOLYLINE
  5
13a
100
AcDbEntity
  8
0
100
AcDbPolyline
 90
     4
 70
     1
 43
0.200000
 10
43.450000
 20
268.200000
 10
43.450000
 20
267.575000
 10
45.350000
 20
267.575000
 10
45.350000
 20
268.200000
  0
LWPOLYLINE
  5
145
100
AcDbEntity
  8
0
100
AcDbPolyline
 90
     3
 70
     0
 43
0.600000
 10
44.400000
 20
270.725000
 10
44.400000
 20
271.375000
 10
46.625000
 20
271.375000
  0
CIRCLE
  5
14e
100
AcDbEntity
  8
0
370
    40
100
AcDbCircle
 10
46.000000
 20
274.225000
 40
0.950000
  0
LINE
  5
151
100
AcDbEntity
  8
0
370
    20
100
AcDbLine
 10
18.400000
 20
225.050000
 11
45.025000
 21
278.025000
  0
LINE
  5
154
100
AcDbEntity
  8
0
370
    20
100
AcDbLine
 10
19.975000
 20
225.050000
 11
46.000000
 21
277.075000
  0
LWPOLYLINE
  5
157
100
AcDbEntity
  8
0
100
AcDbPolyline
 90
     4
 70
     1
 43
0.200000
 10
42.825000
 20
246.000000
 10
42.825000
 20
243.775000
 10
46.000000
 20
243.775000
 10
46.000000
 20
246.000000
  0
LWPOLYLINE
  5
162
100
AcDbEntity
  8
0
  6
DOT
 62
     7
100
AcDbPolyline
 90
    10
 70
     0
 43
0.200000
 10
49.800000
 20
225.050000
 10
49.800000
 20
232.025000
 10
46.300000
 20
232.025000
 10
46.300000
 20
231.075000
 10
42.825000
 20
231.075000
 10
42.825000
 20
237.750000
 10
46.300000
 20
237.750000
 10
46.300000
 20
237.100000
 10
57.400000
 20
237.100000
 10
57.400000
 20
230.775000
  0
CIRCLE
  5
179
100
AcDbEntity
  8
0
370
    40
100
AcDbCircle
 10
54.875000
 20
234.575000
 40
0.950000
  0
LINE
  5
17c
100
AcDbEntity
  8
0
370
    20
100
AcDbLine
 10
44.400000
 20
277.075000
 11
47.575000
 21
277.075000
  0
LINE
  5
17f
100
AcDbEntity
  8
0
370
    40
100
AcDbLine
 10
46.000000
 20
277.075000
 11
46.000000
 21
274.225000
  0
LINE
  5
182
100
AcDbEntity
  8
0
  6
DOT
 62
     7
370
    60
100
AcDbLine
 10
42.175000
 20
267.575000
 11
44.400000
 21
271.050000
  0
LINE
  5
185
100
AcDbEntity
  8
0
  6
DOT
 62
     7
370
    60
100
AcDbLine
 10
44.400000
 20
271.050000
 11
46.625000
 21
267.575000
  0
LINE
  5
188
100
AcDbEntity
  8
0
370
    20
100
AcDbLine
 10
45.025000
 20
278.025000
 11
47.250000
 21
278.025000
  0
LINE
  5
18b
100
AcDbEntity
  8
0
370
    20
100
AcDbLine
 10
43.125000
 20
278.025000
 11
12.350000
 21
278.025000
  0
LINE
  5
18e
100
AcDbEntity
  8
0
370
    20
100
AcDbLine
 10
41.550000
 20
261.525000
 11
24.425000
 21
261.525000
  0
LINE
  5
191
100
AcDbEntity
  8
0
370
    20
100
AcDbLine
 10
42.175000
 20
246.000000
 11
24.725000
 21
246.000000
  0
LINE
  5
194
100
AcDbEntity
  8
0
370
    20
100
AcDbLine
 10
28.850000
 20
242.825000
 11
62.175000
 21
242.825000
  0
LINE
  5
197
100
AcDbEntity
  8
0
370
    20
100
AcDbLine
 10
62.800000
 20
241.550000
 11
28.225000
 21
241.550000
  0
LINE
  5
19a
100
AcDbEntity
  8
0
370
    60
100
AcDbLine
 10
42.175000
 20
226.325000
 11
42.175000
 21
213.000000
  0
LINE
  5
19d
100
AcDbEntity
  8
0
370
    60
100
AcDbLine
 10
46.625000
 20
226.325000
 11
46.625000
 21
213.000000
  0
LINE
  5
1a0
100
AcDbEntity
  8
0
370
    20
100
AcDbLine
 10
43.775000
 20
247.900000
 11
45.025000
 21
247.900000
  0
LINE
  5
1a3
100
AcDbEntity
  8
0
370
    40
100
AcDbLine
 10
43.775000
 20
194.275000
 11
45.025000
 21
194.275000
  0
LINE
  5
1a6
100
AcDbEntity
  8
0
370
    20
100
AcDbLine
 10
45.025000
 20
281.525000
 11
43.775000
 21
281.525000
  0
LINE
  5
1a9
100
AcDbEntity
  8
0
370
    20
100
AcDbLine
 10
43.775000
 20
243.775000
 11
43.775000
 21
242.825000
  0
LINE
  5
1ac
100
AcDbEntity
  8
0
370
    20
100
AcDbLine
 10
45.025000
 20
243.775000
 11
45.025000
 21
242.825000
  0
LINE
  5
1af
100
AcDbEntity
  8
0
370
    20
100
AcDbLine
 10
43.775000
 20
261.525000
 11
43.775000
 21
246.000000
  0
LINE
  5
1b2
100
AcDbEntity
  8
0
370
    20
100
AcDbLine
 10
45.025000
 20
261.525000
 11
45.025000
 21
246.000000
  0
LINE
  5
1b5
100
AcDbEntity
  8
0
370
    20
100
AcDbLine
 10
43.775000
 20
281.525000
 11
43.775000
 21
275.800000
  0
LINE
  5
1b8
100
AcDbEntity
  8
0
370
    20
100
AcDbLine
 10
43.775000
 20
272.650000
 11
43.775000
 21
268.200000
  0
LINE
  5
1bb
100
AcDbEntity
  8
0
370
    20
100
AcDbLine
 10
45.025000
 20
281.525000
 11
45.025000
 21
278.025000
  0
LINE
  5
1be
100
AcDbEntity
  8
0
370
    20
100
AcDbLine
 10
45.025000
 20
275.175000
 11
45.025000
 21
268.200000
  0
LINE
  5
1c1
100
AcDbEntity
  8
0
370
    40
100
AcDbLine
 10
43.775000
 20
194.275000
 11
43.450000
 21
193.650000
  0
LINE
  5
1c4
100
AcDbEntity
  8
0
370
    40
100
AcDbLine
 10
45.025000
 20
194.275000
 11
45.350000
 21
193.650000
  0
LINE
  5
1c7
100
AcDbEntity
  8
0
370
    20
100
AcDbLine
 10
43.775000
 20
195.875000
 11
45.025000
 21
195.875000
  0
LINE
  5
1ca
100
AcDbEntity
  8
0
370
    20
100
AcDbLine
 10
43.450000
 20
191.100000
 11
45.350000
 21
191.100000
  0
LINE
  5
1cd
100
AcDbEntity
  8
0
370
    20
100
AcDbLine
 10
43.450000
 20
173.350000
 11
45.350000
 21
173.350000
  0
POINT
  5
1d0
100
AcDbEntity
  8
0
100
AcDbPoint
 10
44.400000
 20
191.750000
  0
LWPOLYLINE
  5
1d3
100
AcDbEntity
  8
0
100
AcDbPolyline
 90
     4
 70
     0
 43
0.400000
 10
43.450000
 20
171.125000
 10
43.775000
 20
170.800000
 10
45.025000
 20
170.800000
 10
45.350000
 20
171.125000
  0
LINE
  5
1de
100
AcDbEntity
  8
0
370
    20
100
AcDbLine
 10
43.775000
 20
219.025000
 11
45.025000
 21
219.025000
  0
LINE
  5
1e1
100
AcDbEntity
  8
0
370
    20
100
AcDbLine
 10
43.775000
 20
202.525000
 11
45.025000
 21
202.525000
  0
LINE
  5
1e4
100
AcDbEntity
  8
0
370
    40
100
AcDbLine
 10
45.025000
 20
271.375000
 11
45.025000
 21
273.600000
  0
LINE
  5
1e7
100
AcDbEntity
  8
0
370
    40
100
AcDbLine
 10
54.875000
 20
233.625000
 11
66.925000
 21
232.675000
  0
LINE
  5
1ea
100
AcDbEntity
  8
0
370
    40
100
AcDbLine
 10
68.825000
 20
232.350000
 11
78.350000
 21
231.400000
  0
LINE
  5
1ed
100
AcDbEntity
  8
0
370
    40
100
AcDbLine
 10
46.625000
 20
274.225000
 11
51.375000
 21
242.825000
  0
LINE
  5
1f0
100
AcDbEntity
  8
0
370
    40
100
AcDbLine
 10
52.025000
 20
241.550000
 11
53.925000
 21
234.250000
  0
LINE
  5
1f3
100
AcDbEntity
  8
0
370
    20
100
AcDbLine
 10
46.625000
 20
271.375000
 11
48.525000
 21
242.825000
  0
LINE
  5
1f6
100
AcDbEntity
  8
0
370
    20
100
AcDbLine
 10
49.150000
 20
228.550000
 11
48.525000
 21
241.550000
  0
MTEXT
  5
1f9
100
AcDbEntity
  8
0
100
AcDbMText
 10
53.450000
 20
282.575000
 40
1.856250
 41
26.730000
 71
     1
 72
     5
  1
\fＭＳ ゴシック|b0|i0|c128|p49;\T1.8854;ガイドロッド
 44
1.226497
 73
     1
  7
BIGFONT
  0
MTEXT
  5
1fc
100
AcDbEntity
  8
0
100
AcDbMText
 10
55.675000
 20
277.175000
 40
1.856250
 41
13.365000
 71
     1
 72
     5
  1
\fＭＳ ゴシック|b0|i0|c128|p49;\T1.8854;プーリ
 44
1.226497
 73
     1
  7
BIGFONT
  0
MTEXT
  5
1ff
100
AcDbEntity
  8
0
100
AcDbMText
 10
56.300000
 20
271.800000
 40
1.856250
 41
13.365000
 71
     1
 72
     5
  1
\fＭＳ ゴシック|b0|i0|c128|p49;\T1.8854;とんび
 44
1.226497
 73
     1
  7
BIGFONT
  0
MTEXT
  5
202
100
AcDbEntity
  8
0
100
AcDbMText
 10
58.225000
 20
265.775000
 40
1.856250
 41
57.915000
 71
     1
 72
     5
  1
\fＭＳ ゴシック|b0|i0|c128|p49;\T1.8854;ハンマー（規定重量63.5kg）
 44
1.226497
 73
     1
  7
BIGFONT
  0
MTEXT
  5
205
100
AcDbEntity
  8
0
100
AcDbMText
 10
60.425000
 20
260.050000
 40
1.856250
 41
44.550000
 71
     1
 72
     5
  1
\fＭＳ ゴシック|b0|i0|c128|p49;\T1.8854;ハンマー巻上げ用引綱
 44
1.226497
 73
     1
  7
BIGFONT
  0
MTEXT
  5
208
100
AcDbEntity
  8
0
100
AcDbMText
 10
64.875000
 20
254.650000
 40
1.856250
 41
22.275000
 71
     1
 72
     5
  1
\fＭＳ ゴシック|b0|i0|c128|p49;\T1.8854;とんび引綱
 44
1.226497
 73
     1
  7
BIGFONT
  0
MTEXT
  5
20b
100
AcDbEntity
  8
0
100
AcDbMText
 10
27.450000
 20
272.750000
 40
1.856250
 41
13.365000
 71
     1
 72
     5
  1
\fＭＳ ゴシック|b0|i0|c128|p49;\T1.8854;やぐら
 44
1.226497
 73
     1
  7
BIGFONT
  0
MTEXT
  5
20e
100
AcDbEntity
  8
0
100
AcDbMText
 10
65.525000
 20
248.625000
 40
1.856250
 41
35.640000
 71
     1
 72
     5
  1
\fＭＳ ゴシック|b0|i0|c128|p49;\T1.8854;ノッキングヘッド
 44
1.226497
 73
     1
  7
BIGFONT
  0
MTEXT
  5
211
100
AcDbEntity
  8
0
100
AcDbMText
 10
70.275000
 20
240.075000
 40
1.856250
 41
26.730000
 71
     1
 72
     5
  1
\fＭＳ ゴシック|b0|i0|c128|p49;\T1.8854;コーンプーリ
 44
1.226497
 73
     1
  7
BIGFONT
  0
MTEXT
  5
214
100
AcDbEntity
  8
0
100
AcDbMText
 10
51.875000
 20
230.225000
 40
1.856250
 41
31.185000
 71
     1
 72
     5
  1
\fＭＳ ゴシック|b0|i0|c128|p49;\T1.8854;ボーリング機械
 44
1.226497
 73
     1
  7
BIGFONT
  0
MTEXT
  5
217
100
AcDbEntity
  8
0
100
AcDbMText
 10
59.175000
 20
219.125000
 40
1.856250
 41
35.640000
 71
     1
 72
     5
  1
\fＭＳ ゴシック|b0|i0|c128|p49;\T1.8854;ケーシングパイプ
 44
1.226497
 73
     1
  7
BIGFONT
  0
MTEXT
  5
21a
100
AcDbEntity
  8
0
100
AcDbMText
 10
57.275000
 20
206.425000
 40
1.856250
 41
35.640000
 71
     1
 72
     5
  1
\fＭＳ ゴシック|b0|i0|c128|p49;\T1.8854;ボーリングロッド
 44
1.226497
 73
     1
  7
BIGFONT
  0
MTEXT
  5
21d
100
AcDbEntity
  8
0
100
AcDbMText
 10
56.950000
 20
199.450000
 40
1.856250
 41
53.460000
 71
     1
 72
     5
  1
\fＭＳ ゴシック|b0|i0|c128|p49;\T1.8854;ボーリング径（66～86mm）
 44
1.226497
 73
     1
  7
BIGFONT
  0
MTEXT
  5
220
100
AcDbEntity
  8
0
100
AcDbMText
 10
56.300000
 20
186.125000
 40
1.856250
 41
53.460000
 71
     1
 72
     5
  1
\fＭＳ ゴシック|b0|i0|c128|p49;\T1.8854;標準貫入試験用サンプラー
 44
1.226497
 73
     1
  7
BIGFONT
  0
MTEXT
  5
223
100
AcDbEntity
  8
0
100
AcDbMText
 10
57.575000
 20
182.000000
 40
1.856250
 41
40.095000
 71
     1
 72
     5
  1
\fＭＳ ゴシック|b0|i0|c128|p49;\T1.8854;（規定貫入量30cm）
 44
1.226497
 73
     1
  7
BIGFONT
  0
LINE
  5
226
100
AcDbEntity
  8
0
370
    20
100
AcDbLine
 10
16.175000
 20
225.050000
 11
13.950000
 21
222.825000
  0
LINE
  5
229
100
AcDbEntity
  8
0
370
    20
100
AcDbLine
 10
18.400000
 20
225.050000
 11
16.175000
 21
222.825000
  0
LINE
  5
22c
100
AcDbEntity
  8
0
370
    20
100
AcDbLine
 10
20.600000
 20
225.050000
 11
18.400000
 21
222.825000
  0
LINE
  5
22f
100
AcDbEntity
  8
0
370
    20
100
AcDbLine
 10
22.500000
 20
225.050000
 11
20.300000
 21
222.825000
  0
LINE
  5
232
100
AcDbEntity
  8
0
370
    20
100
AcDbLine
 10
24.725000
 20
225.050000
 11
22.500000
 21
222.825000
  0
LINE
  5
235
100
AcDbEntity
  8
0
370
    20
100
AcDbLine
 10
26.950000
 20
225.050000
 11
24.725000
 21
222.825000
  0
LINE
  5
238
100
AcDbEntity
  8
0
370
    20
100
AcDbLine
 10
29.175000
 20
225.050000
 11
26.950000
 21
222.825000
  0
LINE
  5
23b
100
AcDbEntity
  8
0
370
    20
100
AcDbLine
 10
31.400000
 20
225.050000
 11
29.175000
 21
222.825000
  0
LINE
  5
23e
100
AcDbEntity
  8
0
370
    20
100
AcDbLine
 10
33.625000
 20
225.050000
 11
31.400000
 21
222.825000
  0
LINE
  5
241
100
AcDbEntity
  8
0
370
    20
100
AcDbLine
 10
35.825000
 20
225.050000
 11
33.625000
 21
222.825000
  0
LINE
  5
244
100
AcDbEntity
  8
0
370
    20
100
AcDbLine
 10
38.050000
 20
225.050000
 11
35.825000
 21
222.825000
  0
LINE
  5
247
100
AcDbEntity
  8
0
370
    20
100
AcDbLine
 10
40.275000
 20
225.050000
 11
38.050000
 21
222.825000
  0
LINE
  5
24a
100
AcDbEntity
  8
0
370
    20
100
AcDbLine
 10
40.275000
 20
222.825000
 11
42.175000
 21
224.725000
  0
LINE
  5
24d
100
AcDbEntity
  8
0
370
    20
100
AcDbLine
 10
46.625000
 20
224.725000
 11
46.950000
 21
225.050000
  0
LINE
  5
250
100
AcDbEntity
  8
0
370
    20
100
AcDbLine
 10
49.150000
 20
225.050000
 11
46.950000
 21
222.825000
  0
LINE
  5
253
100
AcDbEntity
  8
0
370
    20
100
AcDbLine
 10
51.375000
 20
225.050000
 11
49.150000
 21
222.825000
  0
LINE
  5
256
100
AcDbEntity
  8
0
370
    20
100
AcDbLine
 10
53.600000
 20
225.050000
 11
51.375000
 21
222.825000
  0
LINE
  5
259
100
AcDbEntity
  8
0
370
    20
100
AcDbLine
 10
55.825000
 20
225.050000
 11
53.600000
 21
222.825000
  0
LINE
  5
25c
100
AcDbEntity
  8
0
370
    20
100
AcDbLine
 10
58.050000
 20
225.050000
 11
55.825000
 21
222.825000
  0
LINE
  5
25f
100
AcDbEntity
  8
0
370
    20
100
AcDbLine
 10
60.275000
 20
225.050000
 11
58.050000
 21
222.825000
  0
LINE
  5
262
100
AcDbEntity
  8
0
370
    20
100
AcDbLine
 10
62.475000
 20
225.050000
 11
60.275000
 21
222.825000
  0
LINE
  5
265
100
AcDbEntity
  8
0
370
    20
100
AcDbLine
 10
64.700000
 20
225.050000
 11
62.475000
 21
222.825000
  0
LINE
  5
268
100
AcDbEntity
  8
0
370
    20
100
AcDbLine
 10
66.925000
 20
225.050000
 11
64.700000
 21
222.825000
  0
LINE
  5
26b
100
AcDbEntity
  8
0
370
    20
100
AcDbLine
 10
69.150000
 20
225.050000
 11
66.925000
 21
222.825000
  0
LINE
  5
26e
100
AcDbEntity
  8
0
370
    20
100
AcDbLine
 10
71.375000
 20
225.050000
 11
69.150000
 21
222.825000
  0
LINE
  5
271
100
AcDbEntity
  8
0
370
    20
100
AcDbLine
 10
73.600000
 20
225.050000
 11
71.375000
 21
222.825000
  0
LINE
  5
274
100
AcDbEntity
  8
0
370
    20
100
AcDbLine
 10
75.800000
 20
225.050000
 11
73.600000
 21
222.825000
  0
LINE
  5
277
100
AcDbEntity
  8
0
370
    20
100
AcDbLine
 10
78.025000
 20
225.050000
 11
75.800000
 21
222.825000
  0
LINE
  5
27a
100
AcDbEntity
  8
0
370
    20
100
AcDbLine
 10
12.675000
 20
225.050000
 11
42.175000
 21
225.050000
  0
LINE
  5
27d
100
AcDbEntity
  8
0
370
    20
100
AcDbLine
 10
13.950000
 20
225.050000
 11
12.675000
 21
223.775000
  0
LINE
  5
280
100
AcDbEntity
  8
0
370
    20
100
AcDbLine
 10
46.625000
 20
225.050000
 11
79.625000
 21
225.050000
  0
LINE
  5
283
100
AcDbEntity
  8
0
370
    20
100
AcDbLine
 10
79.625000
 20
224.425000
 11
78.025000
 21
222.825000
  0
LINE
  5
286
100
AcDbEntity
  8
0
370
    20
100
AcDbLine
 10
72.000000
 20
225.050000
 11
71.375000
 21
226.325000
  0
LINE
  5
289
100
AcDbEntity
  8
0
370
    20
100
AcDbLine
 10
69.150000
 20
231.075000
 11
47.250000
 21
278.025000
  0
LINE
  5
28c
100
AcDbEntity
  8
0
370
    20
100
AcDbLine
 10
70.425000
 20
225.050000
 11
69.775000
 21
226.325000
  0
LINE
  5
28f
100
AcDbEntity
  8
0
370
    20
100
AcDbLine
 10
67.550000
 20
231.075000
 11
46.300000
 21
277.075000
  0
LWPOLYLINE
  5
292
100
AcDbEntity
  8
0
100
AcDbPolyline
 90
     7
 70
     0
 43
0.200000
 10
40.600000
 20
209.825000
 10
41.875000
 20
210.450000
 10
43.125000
 20
210.775000
 10
44.725000
 20
210.150000
 10
46.000000
 20
209.500000
 10
47.250000
 20
209.825000
 10
48.200000
 20
210.150000
  0
LWPOLYLINE
  5
2a3
100
AcDbEntity
  8
0
100
AcDbPolyline
 90
     7
 70
     0
 43
0.200000
 10
40.600000
 20
208.550000
 10
41.875000
 20
209.200000
 10
43.125000
 20
209.500000
 10
44.725000
 20
208.875000
 10
46.000000
 20
208.250000
 10
47.250000
 20
208.550000
 10
48.200000
 20
208.875000
  0
LINE
  5
2b4
100
AcDbEntity
  8
0
370
    20
100
AcDbLine
 10
42.175000
 20
191.100000
 11
43.450000
 21
187.625000
  0
LINE
  5
2b7
100
AcDbEntity
  8
0
370
    20
100
AcDbLine
 10
46.625000
 20
191.100000
 11
45.350000
 21
187.625000
  0
LINE
  5
2ba
100
AcDbEntity
  8
0
370
    20
100
AcDbLine
 10
42.175000
 20
212.675000
 11
42.175000
 21
210.775000
  0
LINE
  5
2bd
100
AcDbEntity
  8
0
370
    20
100
AcDbLine
 10
42.175000
 20
209.500000
 11
42.175000
 21
191.100000
  0
LINE
  5
2c0
100
AcDbEntity
  8
0
370
    20
100
AcDbLine
 10
43.775000
 20
241.550000
 11
43.775000
 21
210.775000
  0
LINE
  5
2c3
100
AcDbEntity
  8
0
370
    20
100
AcDbLine
 10
43.775000
 20
209.500000
 11
43.775000
 21
194.275000
  0
LINE
  5
2c6
100
AcDbEntity
  8
0
370
    20
100
AcDbLine
 10
45.025000
 20
241.550000
 11
45.025000
 21
210.150000
  0
LINE
  5
2c9
100
AcDbEntity
  8
0
370
    20
100
AcDbLine
 10
45.025000
 20
208.875000
 11
45.025000
 21
194.275000
  0
LINE
  5
2cc
100
AcDbEntity
  8
0
370
    20
100
AcDbLine
 10
46.625000
 20
212.675000
 11
46.625000
 21
209.825000
  0
LINE
  5
2cf
100
AcDbEntity
  8
0
370
    20
100
AcDbLine
 10
46.625000
 20
208.550000
 11
46.625000
 21
191.100000
  0
LINE
  5
2d2
100
AcDbEntity
  8
0
370
    20
100
AcDbLine
 10
42.175000
 20
221.875000
 11
29.800000
 21
221.875000
  0
LINE
  5
2d5
100
AcDbEntity
  8
0
370
    20
100
AcDbLine
 10
41.875000
 20
220.300000
 11
32.025000
 21
220.300000
  0
LINE
  5
2d8
100
AcDbEntity
  8
0
370
    20
100
AcDbLine
 10
42.175000
 20
218.700000
 11
34.575000
 21
218.700000
  0
LINE
  5
2db
100
AcDbEntity
  8
0
370
    20
100
AcDbLine
 10
42.175000
 20
217.125000
 11
36.150000
 21
217.125000
  0
LINE
  5
2de
100
AcDbEntity
  8
0
370
    20
100
AcDbLine
 10
42.175000
 20
215.525000
 11
36.150000
 21
215.525000
  0
LINE
  5
2e1
100
AcDbEntity
  8
0
370
    20
100
AcDbLine
 10
42.175000
 20
213.950000
 11
36.150000
 21
213.950000
  0
LWPOLYLINE
  5
2e4
100
AcDbEntity
  8
0
100
AcDbPolyline
 90
     7
 70
     0
 43
0.200000
 10
33.300000
 20
209.500000
 10
34.575000
 20
210.150000
 10
35.825000
 20
210.450000
 10
37.425000
 20
209.825000
 10
38.700000
 20
209.200000
 10
39.950000
 20
209.500000
 10
40.925000
 20
209.825000
  0
LWPOLYLINE
  5
2f5
100
AcDbEntity
  8
0
100
AcDbPolyline
 90
     7
 70
     0
 43
0.200000
 10
33.300000
 20
208.250000
 10
34.575000
 20
208.875000
 10
35.825000
 20
209.200000
 10
37.425000
 20
208.550000
 10
38.700000
 20
207.925000
 10
39.950000
 20
208.250000
 10
40.925000
 20
208.550000
  0
LWPOLYLINE
  5
306
100
AcDbEntity
  8
0
100
AcDbPolyline
 90
     7
 70
     0
 43
0.200000
 10
47.575000
 20
209.825000
 10
48.850000
 20
210.450000
 10
50.125000
 20
210.775000
 10
51.700000
 20
210.150000
 10
52.975000
 20
209.500000
 10
54.225000
 20
209.825000
 10
55.200000
 20
210.150000
  0
LWPOLYLINE
  5
317
100
AcDbEntity
  8
0
100
AcDbPolyline
 90
     7
 70
     0
 43
0.200000
 10
47.575000
 20
208.550000
 10
48.850000
 20
209.200000
 10
50.125000
 20
209.500000
 10
51.700000
 20
208.875000
 10
52.975000
 20
208.250000
 10
54.225000
 20
208.550000
 10
55.200000
 20
208.875000
  0
LINE
  5
328
100
AcDbEntity
  8
0
370
    20
100
AcDbLine
 10
41.875000
 20
195.550000
 11
39.950000
 21
195.550000
  0
LINE
  5
32b
100
AcDbEntity
  8
0
370
    20
100
AcDbLine
 10
38.700000
 20
195.550000
 11
36.800000
 21
195.550000
  0
LINE
  5
32e
100
AcDbEntity
  8
0
370
    20
100
AcDbLine
 10
41.550000
 20
194.275000
 11
42.175000
 21
194.275000
  0
LINE
  5
331
100
AcDbEntity
  8
0
370
    20
100
AcDbLine
 10
40.275000
 20
194.275000
 11
38.375000
 21
194.275000
  0
LINE
  5
334
100
AcDbEntity
  8
0
370
    20
100
AcDbLine
 10
41.875000
 20
193.000000
 11
39.950000
 21
193.000000
  0
LINE
  5
337
100
AcDbEntity
  8
0
370
    20
100
AcDbLine
 10
38.700000
 20
193.000000
 11
36.800000
 21
193.000000
  0
LINE
  5
33a
100
AcDbEntity
  8
0
370
    20
100
AcDbLine
 10
41.550000
 20
191.750000
 11
42.175000
 21
191.750000
  0
LINE
  5
33d
100
AcDbEntity
  8
0
370
    20
100
AcDbLine
 10
40.275000
 20
191.750000
 11
38.375000
 21
191.750000
  0
LINE
  5
340
100
AcDbEntity
  8
0
370
    20
100
AcDbLine
 10
41.875000
 20
190.475000
 11
39.950000
 21
190.475000
  0
LINE
  5
343
100
AcDbEntity
  8
0
370
    20
100
AcDbLine
 10
38.700000
 20
190.475000
 11
36.800000
 21
190.475000
  0
LINE
  5
346
100
AcDbEntity
  8
0
370
    20
100
AcDbLine
 10
41.550000
 20
189.200000
 11
42.825000
 21
189.200000
  0
LINE
  5
349
100
AcDbEntity
  8
0
370
    20
100
AcDbLine
 10
40.275000
 20
189.200000
 11
38.375000
 21
189.200000
  0
LINE
  5
34c
100
AcDbEntity
  8
0
370
    20
100
AcDbLine
 10
41.875000
 20
187.925000
 11
39.950000
 21
187.925000
  0
LINE
  5
34f
100
AcDbEntity
  8
0
370
    20
100
AcDbLine
 10
38.700000
 20
187.925000
 11
36.800000
 21
187.925000
  0
LINE
  5
352
100
AcDbEntity
  8
0
370
    20
100
AcDbLine
 10
43.450000
 20
186.675000
 11
41.550000
 21
186.675000
  0
LINE
  5
355
100
AcDbEntity
  8
0
370
    20
100
AcDbLine
 10
40.275000
 20
186.675000
 11
38.375000
 21
186.675000
  0
LINE
  5
358
100
AcDbEntity
  8
0
370
    20
100
AcDbLine
 10
41.875000
 20
185.400000
 11
39.950000
 21
185.400000
  0
LINE
  5
35b
100
AcDbEntity
  8
0
370
    20
100
AcDbLine
 10
38.700000
 20
185.400000
 11
36.800000
 21
185.400000
  0
LINE
  5
35e
100
AcDbEntity
  8
0
370
    20
100
AcDbLine
 10
43.450000
 20
184.125000
 11
41.550000
 21
184.125000
  0
LINE
  5
361
100
AcDbEntity
  8
0
370
    20
100
AcDbLine
 10
40.275000
 20
184.125000
 11
38.375000
 21
184.125000
  0
LINE
  5
364
100
AcDbEntity
  8
0
370
    20
100
AcDbLine
 10
41.875000
 20
182.850000
 11
39.950000
 21
182.850000
  0
LINE
  5
367
100
AcDbEntity
  8
0
370
    20
100
AcDbLine
 10
38.700000
 20
182.850000
 11
36.800000
 21
182.850000
  0
LINE
  5
36a
100
AcDbEntity
  8
0
370
    20
100
AcDbLine
 10
43.450000
 20
181.600000
 11
41.550000
 21
181.600000
  0
LINE
  5
36d
100
AcDbEntity
  8
0
370
    20
100
AcDbLine
 10
40.275000
 20
181.600000
 11
38.375000
 21
181.600000
  0
LINE
  5
370
100
AcDbEntity
  8
0
370
    20
100
AcDbLine
 10
41.875000
 20
180.325000
 11
39.950000
 21
180.325000
  0
LINE
  5
373
100
AcDbEntity
  8
0
370
    20
100
AcDbLine
 10
38.700000
 20
180.325000
 11
36.800000
 21
180.325000
  0
LINE
  5
376
100
AcDbEntity
  8
0
370
    20
100
AcDbLine
 10
43.450000
 20
179.050000
 11
41.550000
 21
179.050000
  0
LINE
  5
379
100
AcDbEntity
  8
0
370
    20
100
AcDbLine
 10
40.275000
 20
179.050000
 11
38.375000
 21
179.050000
  0
LINE
  5
37c
100
AcDbEntity
  8
0
370
    20
100
AcDbLine
 10
41.875000
 20
177.775000
 11
39.950000
 21
177.775000
  0
LINE
  5
37f
100
AcDbEntity
  8
0
370
    20
100
AcDbLine
 10
38.700000
 20
177.775000
 11
36.800000
 21
177.775000
  0
LINE
  5
382
100
AcDbEntity
  8
0
370
    20
100
AcDbLine
 10
43.450000
 20
176.525000
 11
41.550000
 21
176.525000
  0
LINE
  5
385
100
AcDbEntity
  8
0
370
    20
100
AcDbLine
 10
40.275000
 20
176.525000
 11
38.375000
 21
176.525000
  0
LINE
  5
388
100
AcDbEntity
  8
0
370
    20
100
AcDbLine
 10
41.875000
 20
175.250000
 11
39.950000
 21
175.250000
  0
LINE
  5
38b
100
AcDbEntity
  8
0
370
    20
100
AcDbLine
 10
38.700000
 20
175.250000
 11
36.800000
 21
175.250000
  0
LINE
  5
38e
100
AcDbEntity
  8
0
370
    20
100
AcDbLine
 10
43.450000
 20
173.975000
 11
41.550000
 21
173.975000
  0
LINE
  5
391
100
AcDbEntity
  8
0
370
    20
100
AcDbLine
 10
40.275000
 20
173.975000
 11
38.375000
 21
173.975000
  0
LINE
  5
394
100
AcDbEntity
  8
0
370
    20
100
AcDbLine
 10
41.875000
 20
172.700000
 11
39.950000
 21
172.700000
  0
LINE
  5
397
100
AcDbEntity
  8
0
370
    20
100
AcDbLine
 10
38.700000
 20
172.700000
 11
36.800000
 21
172.700000
  0
LINE
  5
39a
100
AcDbEntity
  8
0
370
    20
100
AcDbLine
 10
43.450000
 20
171.425000
 11
41.550000
 21
171.425000
  0
LINE
  5
39d
100
AcDbEntity
  8
0
370
    20
100
AcDbLine
 10
40.275000
 20
171.425000
 11
38.375000
 21
171.425000
  0
LINE
  5
3a0
100
AcDbEntity
  8
0
370
    20
100
AcDbLine
 10
41.875000
 20
170.175000
 11
39.950000
 21
170.175000
  0
LINE
  5
3a3
100
AcDbEntity
  8
0
370
    20
100
AcDbLine
 10
38.700000
 20
170.175000
 11
36.800000
 21
170.175000
  0
LINE
  5
3a6
100
AcDbEntity
  8
0
370
    20
100
AcDbLine
 10
43.775000
 20
168.900000
 11
41.875000
 21
168.900000
  0
LINE
  5
3a9
100
AcDbEntity
  8
0
370
    20
100
AcDbLine
 10
40.600000
 20
168.900000
 11
38.700000
 21
168.900000
  0
LINE
  5
3ac
100
AcDbEntity
  8
0
370
    20
100
AcDbLine
 10
42.175000
 20
167.625000
 11
40.275000
 21
167.625000
  0
LINE
  5
3af
100
AcDbEntity
  8
0
370
    20
100
AcDbLine
 10
39.000000
 20
167.625000
 11
37.100000
 21
167.625000
  0
LINE
  5
3b2
100
AcDbEntity
  8
0
370
    20
100
AcDbLine
 10
43.775000
 20
166.350000
 11
41.875000
 21
166.350000
  0
LINE
  5
3b5
100
AcDbEntity
  8
0
370
    20
100
AcDbLine
 10
40.600000
 20
166.350000
 11
38.700000
 21
166.350000
  0
POINT
  5
3b8
100
AcDbEntity
  8
0
100
AcDbPoint
 10
36.475000
 20
213.000000
  0
POINT
  5
3bb
100
AcDbEntity
  8
0
100
AcDbPoint
 10
38.375000
 20
212.675000
  0
POINT
  5
3be
100
AcDbEntity
  8
0
100
AcDbPoint
 10
40.600000
 20
212.675000
  0
POINT
  5
3c1
100
AcDbEntity
  8
0
100
AcDbPoint
 10
36.475000
 20
211.400000
  0
POINT
  5
3c4
100
AcDbEntity
  8
0
100
AcDbPoint
 10
38.050000
 20
210.775000
  0
POINT
  5
3c7
100
AcDbEntity
  8
0
100
AcDbPoint
 10
39.950000
 20
210.775000
  0
POINT
  5
3ca
100
AcDbEntity
  8
0
100
AcDbPoint
 10
36.800000
 20
210.150000
  0
POINT
  5
3cd
100
AcDbEntity
  8
0
100
AcDbPoint
 10
41.225000
 20
207.925000
  0
POINT
  5
3d0
100
AcDbEntity
  8
0
100
AcDbPoint
 10
39.325000
 20
207.275000
  0
POINT
  5
3d3
100
AcDbEntity
  8
0
100
AcDbPoint
 10
36.475000
 20
207.275000
  0
POINT
  5
3d6
100
AcDbEntity
  8
0
100
AcDbPoint
 10
36.150000
 20
204.750000
  0
POINT
  5
3d9
100
AcDbEntity
  8
0
100
AcDbPoint
 10
37.750000
 20
206.025000
  0
POINT
  5
3dc
100
AcDbEntity
  8
0
100
AcDbPoint
 10
40.600000
 20
206.025000
  0
POINT
  5
3df
100
AcDbEntity
  8
0
100
AcDbPoint
 10
40.600000
 20
203.475000
  0
POINT
  5
3e2
100
AcDbEntity
  8
0
100
AcDbPoint
 10
39.000000
 20
205.075000
  0
POINT
  5
3e5
100
AcDbEntity
  8
0
100
AcDbPoint
 10
37.425000
 20
204.125000
  0
POINT
  5
3e8
100
AcDbEntity
  8
0
100
AcDbPoint
 10
39.000000
 20
202.525000
  0
POINT
  5
3eb
100
AcDbEntity
  8
0
100
AcDbPoint
 10
36.150000
 20
202.525000
  0
POINT
  5
3ee
100
AcDbEntity
  8
0
100
AcDbPoint
 10
40.925000
 20
200.950000
  0
POINT
  5
3f1
100
AcDbEntity
  8
0
100
AcDbPoint
 10
38.050000
 20
201.250000
  0
POINT
  5
3f4
100
AcDbEntity
  8
0
100
AcDbPoint
 10
39.650000
 20
200.000000
  0
POINT
  5
3f7
100
AcDbEntity
  8
0
100
AcDbPoint
 10
37.100000
 20
200.000000
  0
POINT
  5
3fa
100
AcDbEntity
  8
0
100
AcDbPoint
 10
39.950000
 20
198.725000
  0
POINT
  5
3fd
100
AcDbEntity
  8
0
100
AcDbPoint
 10
38.375000
 20
199.050000
  0
POINT
  5
400
100
AcDbEntity
  8
0
100
AcDbPoint
 10
37.425000
 20
197.775000
  0
POINT
  5
403
100
AcDbEntity
  8
0
100
AcDbPoint
 10
40.600000
 20
197.450000
  0
LINE
  5
406
100
AcDbEntity
  8
0
370
    20
100
AcDbLine
 10
42.175000
 20
196.825000
 11
35.825000
 21
196.825000
  0
LINE
  5
409
100
AcDbEntity
  8
0
370
    20
100
AcDbLine
 10
37.425000
 20
194.275000
 11
35.825000
 21
194.275000
  0
LINE
  5
40c
100
AcDbEntity
  8
0
370
    20
100
AcDbLine
 10
37.425000
 20
191.750000
 11
35.825000
 21
191.750000
  0
LINE
  5
40f
100
AcDbEntity
  8
0
370
    20
100
AcDbLine
 10
37.425000
 20
189.200000
 11
35.825000
 21
189.200000
  0
LINE
  5
412
100
AcDbEntity
  8
0
370
    20
100
AcDbLine
 10
37.425000
 20
186.675000
 11
35.825000
 21
186.675000
  0
LINE
  5
415
100
AcDbEntity
  8
0
370
    20
100
AcDbLine
 10
37.425000
 20
184.125000
 11
35.825000
 21
184.125000
  0
LINE
  5
418
100
AcDbEntity
  8
0
370
    20
100
AcDbLine
 10
37.425000
 20
181.600000
 11
35.825000
 21
181.600000
  0
LINE
  5
41b
100
AcDbEntity
  8
0
370
    20
100
AcDbLine
 10
37.425000
 20
179.050000
 11
35.825000
 21
179.050000
  0
LINE
  5
41e
100
AcDbEntity
  8
0
370
    20
100
AcDbLine
 10
37.425000
 20
176.525000
 11
35.825000
 21
176.525000
  0
LINE
  5
421
100
AcDbEntity
  8
0
370
    20
100
AcDbLine
 10
37.425000
 20
173.975000
 11
35.825000
 21
173.975000
  0
LINE
  5
424
100
AcDbEntity
  8
0
370
    20
100
AcDbLine
 10
37.425000
 20
171.425000
 11
35.825000
 21
171.425000
  0
LINE
  5
427
100
AcDbEntity
  8
0
370
    20
100
AcDbLine
 10
37.750000
 20
168.900000
 11
36.150000
 21
168.900000
  0
LINE
  5
42a
100
AcDbEntity
  8
0
370
    20
100
AcDbLine
 10
37.750000
 20
166.350000
 11
36.150000
 21
166.350000
  0
LINE
  5
42d
100
AcDbEntity
  8
0
370
    20
100
AcDbLine
 10
46.950000
 20
195.550000
 11
48.850000
 21
195.550000
  0
LINE
  5
430
100
AcDbEntity
  8
0
370
    20
100
AcDbLine
 10
50.125000
 20
195.550000
 11
52.025000
 21
195.550000
  0
LINE
  5
433
100
AcDbEntity
  8
0
370
    20
100
AcDbLine
 10
47.250000
 20
194.275000
 11
46.625000
 21
194.275000
  0
LINE
  5
436
100
AcDbEntity
  8
0
370
    20
100
AcDbLine
 10
48.525000
 20
194.275000
 11
50.425000
 21
194.275000
  0
LINE
  5
439
100
AcDbEntity
  8
0
370
    20
100
AcDbLine
 10
46.950000
 20
193.000000
 11
48.850000
 21
193.000000
  0
LINE
  5
43c
100
AcDbEntity
  8
0
370
    20
100
AcDbLine
 10
50.125000
 20
193.000000
 11
52.025000
 21
193.000000
  0
LINE
  5
43f
100
AcDbEntity
  8
0
370
    20
100
AcDbLine
 10
47.250000
 20
191.750000
 11
46.625000
 21
191.750000
  0
LINE
  5
442
100
AcDbEntity
  8
0
370
    20
100
AcDbLine
 10
48.525000
 20
191.750000
 11
50.425000
 21
191.750000
  0
LINE
  5
445
100
AcDbEntity
  8
0
370
    20
100
AcDbLine
 10
46.950000
 20
190.475000
 11
48.850000
 21
190.475000
  0
LINE
  5
448
100
AcDbEntity
  8
0
370
    20
100
AcDbLine
 10
50.125000
 20
190.475000
 11
52.025000
 21
190.475000
  0
LINE
  5
44b
100
AcDbEntity
  8
0
370
    20
100
AcDbLine
 10
47.250000
 20
189.200000
 11
46.000000
 21
189.200000
  0
LINE
  5
44e
100
AcDbEntity
  8
0
370
    20
100
AcDbLine
 10
48.525000
 20
189.200000
 11
50.425000
 21
189.200000
  0
LINE
  5
451
100
AcDbEntity
  8
0
370
    20
100
AcDbLine
 10
46.950000
 20
187.925000
 11
48.850000
 21
187.925000
  0
LINE
  5
454
100
AcDbEntity
  8
0
370
    20
100
AcDbLine
 10
50.125000
 20
187.925000
 11
52.025000
 21
187.925000
  0
LINE
  5
457
100
AcDbEntity
  8
0
370
    20
100
AcDbLine
 10
45.350000
 20
186.675000
 11
47.250000
 21
186.675000
  0
LINE
  5
45a
100
AcDbEntity
  8
0
370
    20
100
AcDbLine
 10
48.525000
 20
186.675000
 11
50.425000
 21
186.675000
  0
LINE
  5
45d
100
AcDbEntity
  8
0
370
    20
100
AcDbLine
 10
46.950000
 20
185.400000
 11
48.850000
 21
185.400000
  0
LINE
  5
460
100
AcDbEntity
  8
0
370
    20
100
AcDbLine
 10
50.125000
 20
185.400000
 11
52.025000
 21
185.400000
  0
LINE
  5
463
100
AcDbEntity
  8
0
370
    20
100
AcDbLine
 10
45.350000
 20
184.125000
 11
47.250000
 21
184.125000
  0
LINE
  5
466
100
AcDbEntity
  8
0
370
    20
100
AcDbLine
 10
48.525000
 20
184.125000
 11
50.425000
 21
184.125000
  0
LINE
  5
469
100
AcDbEntity
  8
0
370
    20
100
AcDbLine
 10
46.950000
 20
182.850000
 11
48.850000
 21
182.850000
  0
LINE
  5
46c
100
AcDbEntity
  8
0
370
    20
100
AcDbLine
 10
50.125000
 20
182.850000
 11
52.025000
 21
182.850000
  0
LINE
  5
46f
100
AcDbEntity
  8
0
370
    20
100
AcDbLine
 10
45.350000
 20
181.600000
 11
47.250000
 21
181.600000
  0
LINE
  5
472
100
AcDbEntity
  8
0
370
    20
100
AcDbLine
 10
48.525000
 20
181.600000
 11
50.425000
 21
181.600000
  0
LINE
  5
475
100
AcDbEntity
  8
0
370
    20
100
AcDbLine
 10
46.950000
 20
180.325000
 11
48.850000
 21
180.325000
  0
LINE
  5
478
100
AcDbEntity
  8
0
370
    20
100
AcDbLine
 10
50.125000
 20
180.325000
 11
52.025000
 21
180.325000
  0
LINE
  5
47b
100
AcDbEntity
  8
0
370
    20
100
AcDbLine
 10
45.350000
 20
179.050000
 11
47.250000
 21
179.050000
  0
LINE
  5
47e
100
AcDbEntity
  8
0
370
    20
100
AcDbLine
 10
48.525000
 20
179.050000
 11
50.425000
 21
179.050000
  0
LINE
  5
481
100
AcDbEntity
  8
0
370
    20
100
AcDbLine
 10
46.950000
 20
177.775000
 11
48.850000
 21
177.775000
  0
LINE
  5
484
100
AcDbEntity
  8
0
370
    20
100
AcDbLine
 10
50.125000
 20
177.775000
 11
52.025000
 21
177.775000
  0
LINE
  5
487
100
AcDbEntity
  8
0
370
    20
100
AcDbLine
 10
45.350000
 20
176.525000
 11
47.250000
 21
176.525000
  0
LINE
  5
48a
100
AcDbEntity
  8
0
370
    20
100
AcDbLine
 10
48.525000
 20
176.525000
 11
50.425000
 21
176.525000
  0
LINE
  5
48d
100
AcDbEntity
  8
0
370
    20
100
AcDbLine
 10
46.950000
 20
175.250000
 11
48.850000
 21
175.250000
  0
LINE
  5
490
100
AcDbEntity
  8
0
370
    20
100
AcDbLine
 10
50.125000
 20
175.250000
 11
52.025000
 21
175.250000
  0
LINE
  5
493
100
AcDbEntity
  8
0
370
    20
100
AcDbLine
 10
45.350000
 20
173.975000
 11
47.250000
 21
173.975000
  0
LINE
  5
496
100
AcDbEntity
  8
0
370
    20
100
AcDbLine
 10
48.525000
 20
173.975000
 11
50.425000
 21
173.975000
  0
LINE
  5
499
100
AcDbEntity
  8
0
370
    20
100
AcDbLine
 10
46.950000
 20
172.700000
 11
48.850000
 21
172.700000
  0
LINE
  5
49c
100
AcDbEntity
  8
0
370
    20
100
AcDbLine
 10
50.125000
 20
172.700000
 11
52.025000
 21
172.700000
  0
LINE
  5
49f
100
AcDbEntity
  8
0
370
    20
100
AcDbLine
 10
45.350000
 20
171.425000
 11
47.250000
 21
171.425000
  0
LINE
  5
4a2
100
AcDbEntity
  8
0
370
    20
100
AcDbLine
 10
48.525000
 20
171.425000
 11
50.425000
 21
171.425000
  0
LINE
  5
4a5
100
AcDbEntity
  8
0
370
    20
100
AcDbLine
 10
46.950000
 20
170.175000
 11
48.850000
 21
170.175000
  0
LINE
  5
4a8
100
AcDbEntity
  8
0
370
    20
100
AcDbLine
 10
50.125000
 20
170.175000
 11
52.025000
 21
170.175000
  0
LINE
  5
4ab
100
AcDbEntity
  8
0
370
    20
100
AcDbLine
 10
45.025000
 20
168.900000
 11
46.950000
 21
168.900000
  0
LINE
  5
4ae
100
AcDbEntity
  8
0
370
    20
100
AcDbLine
 10
48.200000
 20
168.900000
 11
50.125000
 21
168.900000
  0
LINE
  5
4b1
100
AcDbEntity
  8
0
370
    20
100
AcDbLine
 10
46.625000
 20
167.625000
 11
48.525000
 21
167.625000
  0
LINE
  5
4b4
100
AcDbEntity
  8
0
370
    20
100
AcDbLine
 10
49.800000
 20
167.625000
 11
51.700000
 21
167.625000
  0
LINE
  5
4b7
100
AcDbEntity
  8
0
370
    20
100
AcDbLine
 10
45.025000
 20
166.350000
 11
46.950000
 21
166.350000
  0
LINE
  5
4ba
100
AcDbEntity
  8
0
370
    20
100
AcDbLine
 10
48.200000
 20
166.350000
 11
50.125000
 21
166.350000
  0
LINE
  5
4bd
100
AcDbEntity
  8
0
370
    20
100
AcDbLine
 10
51.375000
 20
194.275000
 11
52.975000
 21
194.275000
  0
LINE
  5
4c0
100
AcDbEntity
  8
0
370
    20
100
AcDbLine
 10
51.375000
 20
191.750000
 11
52.975000
 21
191.750000
  0
LINE
  5
4c3
100
AcDbEntity
  8
0
370
    20
100
AcDbLine
 10
51.375000
 20
189.200000
 11
52.975000
 21
189.200000
  0
LINE
  5
4c6
100
AcDbEntity
  8
0
370
    20
100
AcDbLine
 10
51.375000
 20
186.675000
 11
52.975000
 21
186.675000
  0
LINE
  5
4c9
100
AcDbEntity
  8
0
370
    20
100
AcDbLine
 10
51.375000
 20
184.125000
 11
52.975000
 21
184.125000
  0
LINE
  5
4cc
100
AcDbEntity
  8
0
370
    20
100
AcDbLine
 10
51.375000
 20
181.600000
 11
52.975000
 21
181.600000
  0
LINE
  5
4cf
100
AcDbEntity
  8
0
370
    20
100
AcDbLine
 10
51.375000
 20
179.050000
 11
52.975000
 21
179.050000
  0
LINE
  5
4d2
100
AcDbEntity
  8
0
370
    20
100
AcDbLine
 10
51.375000
 20
176.525000
 11
52.975000
 21
176.525000
  0
LINE
  5
4d5
100
AcDbEntity
  8
0
370
    20
100
AcDbLine
 10
51.375000
 20
173.975000
 11
52.975000
 21
173.975000
  0
LINE
  5
4d8
100
AcDbEntity
  8
0
370
    20
100
AcDbLine
 10
51.375000
 20
171.425000
 11
52.975000
 21
171.425000
  0
LINE
  5
4db
100
AcDbEntity
  8
0
370
    20
100
AcDbLine
 10
51.075000
 20
168.900000
 11
52.650000
 21
168.900000
  0
LINE
  5
4de
100
AcDbEntity
  8
0
370
    20
100
AcDbLine
 10
51.075000
 20
166.350000
 11
52.650000
 21
166.350000
  0
LINE
  5
4e1
100
AcDbEntity
  8
0
370
    20
100
AcDbLine
 10
46.625000
 20
196.825000
 11
52.975000
 21
196.825000
  0
LINE
  5
4e4
100
AcDbEntity
  8
0
370
    20
100
AcDbLine
 10
43.450000
 20
167.625000
 11
45.350000
 21
167.625000
  0
LINE
  5
4e7
100
AcDbEntity
  8
0
370
    20
100
AcDbLine
 10
43.450000
 20
170.175000
 11
45.350000
 21
170.175000
  0
LINE
  5
4ea
100
AcDbEntity
  8
0
370
    40
100
AcDbLine
 10
43.450000
 20
193.650000
 11
43.450000
 21
171.125000
  0
LINE
  5
4ed
100
AcDbEntity
  8
0
370
    20
100
AcDbLine
 10
43.450000
 20
171.125000
 11
45.350000
 21
171.125000
  0
LINE
  5
4f0
100
AcDbEntity
  8
0
370
    40
100
AcDbLine
 10
45.350000
 20
171.125000
 11
45.350000
 21
193.650000
  0
LINE
  5
4f3
100
AcDbEntity
  8
0
370
    20
100
AcDbLine
 10
45.350000
 20
193.650000
 11
43.450000
 21
193.650000
  0
POINT
  5
4f6
100
AcDbEntity
  8
0
100
AcDbPoint
 10
52.325000
 20
213.000000
  0
POINT
  5
4f9
100
AcDbEntity
  8
0
100
AcDbPoint
 10
50.425000
 20
212.675000
  0
POINT
  5
4fc
100
AcDbEntity
  8
0
100
AcDbPoint
 10
48.200000
 20
212.675000
  0
POINT
  5
4ff
100
AcDbEntity
  8
0
100
AcDbPoint
 10
52.325000
 20
211.400000
  0
POINT
  5
502
100
AcDbEntity
  8
0
100
AcDbPoint
 10
50.750000
 20
210.775000
  0
POINT
  5
505
100
AcDbEntity
  8
0
100
AcDbPoint
 10
48.850000
 20
210.775000
  0
POINT
  5
508
100
AcDbEntity
  8
0
100
AcDbPoint
 10
52.025000
 20
210.150000
  0
POINT
  5
50b
100
AcDbEntity
  8
0
100
AcDbPoint
 10
47.575000
 20
207.925000
  0
POINT
  5
50e
100
AcDbEntity
  8
0
100
AcDbPoint
 10
49.475000
 20
207.275000
  0
POINT
  5
511
100
AcDbEntity
  8
0
100
AcDbPoint
 10
52.325000
 20
207.275000
  0
POINT
  5
514
100
AcDbEntity
  8
0
100
AcDbPoint
 10
52.650000
 20
204.750000
  0
POINT
  5
517
100
AcDbEntity
  8
0
100
AcDbPoint
 10
51.075000
 20
206.025000
  0
POINT
  5
51a
100
AcDbEntity
  8
0
100
AcDbPoint
 10
48.200000
 20
206.025000
  0
POINT
  5
51d
100
AcDbEntity
  8
0
100
AcDbPoint
 10
48.200000
 20
203.475000
  0
POINT
  5
520
100
AcDbEntity
  8
0
100
AcDbPoint
 10
49.800000
 20
205.075000
  0
POINT
  5
523
100
AcDbEntity
  8
0
100
AcDbPoint
 10
51.375000
 20
204.125000
  0
POINT
  5
526
100
AcDbEntity
  8
0
100
AcDbPoint
 10
49.800000
 20
202.525000
  0
POINT
  5
529
100
AcDbEntity
  8
0
100
AcDbPoint
 10
52.650000
 20
202.525000
  0
POINT
  5
52c
100
AcDbEntity
  8
0
100
AcDbPoint
 10
47.900000
 20
200.950000
  0
POINT
  5
52f
100
AcDbEntity
  8
0
100
AcDbPoint
 10
50.750000
 20
201.250000
  0
POINT
  5
532
100
AcDbEntity
  8
0
100
AcDbPoint
 10
49.150000
 20
200.000000
  0
POINT
  5
535
100
AcDbEntity
  8
0
100
AcDbPoint
 10
51.700000
 20
200.000000
  0
POINT
  5
538
100
AcDbEntity
  8
0
100
AcDbPoint
 10
48.850000
 20
198.725000
  0
POINT
  5
53b
100
AcDbEntity
  8
0
100
AcDbPoint
 10
50.425000
 20
199.050000
  0
POINT
  5
53e
100
AcDbEntity
  8
0
100
AcDbPoint
 10
51.375000
 20
197.775000
  0
POINT
  5
541
100
AcDbEntity
  8
0
100
AcDbPoint
 10
48.200000
 20
197.450000
  0
LINE
  5
544
100
AcDbEntity
  8
0
370
    20
100
AcDbLine
 10
46.625000
 20
221.875000
 11
59.000000
 21
221.875000
  0
LINE
  5
547
100
AcDbEntity
  8
0
370
    20
100
AcDbLine
 10
46.950000
 20
220.300000
 11
56.775000
 21
220.300000
  0
LINE
  5
54a
100
AcDbEntity
  8
0
370
    20
100
AcDbLine
 10
46.625000
 20
218.700000
 11
54.225000
 21
218.700000
  0
LINE
  5
54d
100
AcDbEntity
  8
0
370
    20
100
AcDbLine
 10
46.625000
 20
217.125000
 11
52.650000
 21
217.125000
  0
LINE
  5
550
100
AcDbEntity
  8
0
370
    20
100
AcDbLine
 10
46.625000
 20
215.525000
 11
52.650000
 21
215.525000
  0
LINE
  5
553
100
AcDbEntity
  8
0
370
    20
100
AcDbLine
 10
46.625000
 20
213.950000
 11
52.650000
 21
213.950000
  0
MTEXT
  5
556
100
AcDbEntity
  8
0
100
AcDbMText
 10
14.475000
 20
-540.100000
 40
1.856250
 41
13.365000
 71
     1
 72
     5
  1
\fＭＳ ゴシック|b0|i0|c128|p49;\T1.8854;約５ｍ
 44
1.226497
 73
     1
 11
0.0000000000000000
 21
1.000000
 31
0.000000
  7
BIGFONT
  0
MTEXT
  5
559
100
AcDbEntity
  8
0
100
AcDbMText
 10
20.500000
 20
-540.100000
 40
1.856250
 41
26.730000
 71
     1
 72
     5
  1
\fＭＳ ゴシック|b0|i0|c128|p49;\T1.8854;規定落下高さ
 44
1.226497
 73
     1
 11
0.0000000000000000
 21
1.000000
 31
0.000000
  7
BIGFONT
  0
MTEXT
  5
55c
100
AcDbEntity
  8
0
100
AcDbMText
 10
25.575000
 20
-540.100000
 40
2.475000
 41
8.910000
 71
     1
 72
     5
  1
\fＭＳ ゴシック|b0|i0|c128|p49;\T0.9100;75cm
 44
0.987879
 73
     1
 11
0.0000000000000000
 21
1.000000
 31
0.000000
  7
BIGFONT
  0
LINE
  5
55f
100
AcDbEntity
  8
0
370
    20
100
AcDbLine
 10
15.850000
 20
225.050000
 11
15.850000
 21
240.275000
  0
LINE
  5
562
100
AcDbEntity
  8
0
370
    20
100
AcDbLine
 10
15.850000
 20
253.275000
 11
15.850000
 21
278.025000
  0
LINE
  5
565
100
AcDbEntity
  8
0
370
    20
100
AcDbLine
 10
26.950000
 20
249.800000
 11
26.950000
 21
246.000000
  0
LINE
  5
568
100
AcDbEntity
  8
0
370
    20
100
AcDbLine
 10
26.950000
 20
261.525000
 11
26.950000
 21
258.375000
  0
LINE
  5
56b
100
AcDbEntity
  8
0
370
    20
100
AcDbLine
 10
15.850000
 20
278.025000
 11
15.225000
 21
275.500000
  0
LINE
  5
56e
100
AcDbEntity
  8
0
370
    20
100
AcDbLine
 10
26.950000
 20
261.525000
 11
26.325000
 21
259.625000
  0
LINE
  5
571
100
AcDbEntity
  8
0
370
    20
100
AcDbLine
 10
26.950000
 20
246.000000
 11
26.325000
 21
247.900000
  0
LINE
  5
574
100
AcDbEntity
  8
0
370
    20
100
AcDbLine
 10
15.850000
 20
225.050000
 11
15.225000
 21
227.600000
  0
LWPOLYLINE
  5
577
100
AcDbEntity
  8
0
100
AcDbPolyline
 90
     3
 70
     0
 43
0.200000
 10
57.725000
 20
217.750000
 10
46.625000
 20
214.575000
 10
49.475000
 20
216.175000
  0
LWPOLYLINE
  5
580
100
AcDbEntity
  8
0
100
AcDbPolyline
 90
     3
 70
     0
 43
0.200000
 10
55.825000
 20
204.750000
 10
45.025000
 20
203.150000
 10
47.250000
 20
204.125000
  0
LWPOLYLINE
  5
589
100
AcDbEntity
  8
0
100
AcDbPolyline
 90
     3
 70
     0
 43
0.200000
 10
55.500000
 20
197.775000
 10
46.625000
 20
198.400000
 10
49.475000
 20
198.725000
  0
LWPOLYLINE
  5
592
100
AcDbEntity
  8
0
100
AcDbPolyline
 90
     3
 70
     0
 43
0.200000
 10
54.550000
 20
184.450000
 10
45.350000
 20
181.900000
 10
47.900000
 20
183.500000
  0
LWPOLYLINE
  5
59b
100
AcDbEntity
  8
0
100
AcDbPolyline
 90
     3
 70
     0
 43
0.200000
 10
69.475000
 20
238.375000
 10
55.500000
 20
234.875000
 10
58.350000
 20
236.150000
  0
LWPOLYLINE
  5
5a4
100
AcDbEntity
  8
0
100
AcDbPolyline
 90
     3
 70
     0
 43
0.200000
 10
65.025000
 20
247.250000
 10
46.000000
 20
244.400000
 10
48.850000
 20
245.350000
  0
LWPOLYLINE
  5
5ad
100
AcDbEntity
  8
0
100
AcDbPolyline
 90
     3
 70
     0
 43
0.200000
 10
63.750000
 20
252.650000
 10
47.900000
 20
249.475000
 10
49.800000
 20
250.425000
  0
LWPOLYLINE
  5
5b6
100
AcDbEntity
  8
0
100
AcDbPolyline
 90
     3
 70
     0
 43
0.200000
 10
59.325000
 20
258.375000
 10
49.475000
 20
256.150000
 10
51.700000
 20
257.100000
  0
LWPOLYLINE
  5
5bf
100
AcDbEntity
  8
0
100
AcDbPolyline
 90
     3
 70
     0
 43
0.200000
 10
56.775000
 20
264.075000
 10
44.400000
 20
263.750000
 10
46.000000
 20
264.075000
  0
LWPOLYLINE
  5
5c8
100
AcDbEntity
  8
0
100
AcDbPolyline
 90
     3
 70
     0
 43
0.200000
 10
55.200000
 20
270.100000
 10
46.000000
 20
271.375000
 10
48.525000
 20
271.700000
  0
LWPOLYLINE
  5
5d1
100
AcDbEntity
  8
0
100
AcDbPolyline
 90
     3
 70
     0
 43
0.200000
 10
54.225000
 20
275.500000
 10
46.000000
 20
274.225000
 10
48.200000
 20
275.175000
  0
LWPOLYLINE
  5
5da
100
AcDbEntity
  8
0
100
AcDbPolyline
 90
     3
 70
     0
 43
0.200000
 10
52.025000
 20
280.575000
 10
45.025000
 20
279.300000
 10
47.575000
 20
280.250000
  0
LWPOLYLINE
  5
5e3
100
AcDbEntity
  8
0
100
AcDbPolyline
 90
     3
 70
     0
 43
0.200000
 10
37.425000
 20
270.725000
 10
40.600000
 20
269.475000
 10
39.325000
 20
270.725000
  0
MTEXT
  5
5ec
100
AcDbEntity
  8
0
100
AcDbMText
 10
14.200000
 20
242.425000
 40
1.856250
 41
13.365000
 71
     1
 72
     5
  1
\fＭＳ ゴシック|b0|i0|c128|p49;\T1.4384;約５ｍ
 44
1.597188
 73
     1
 11
0.0000000000000000
 21
1.000000
 31
0.000000
  7
BIGFONT
  0
MTEXT
  5
5ef
100
AcDbEntity
  8
0
100
AcDbMText
 10
25.250000
 20
251.150000
 40
2.475000
 41
8.910000
 71
     1
 72
     5
  1
\fＭＳ ゴシック|b0|i0|c128|p49;\T0.9100;75cm
 44
1.284848
 73
     1
 11
0.0000000000000000
 21
1.000000
 31
0.000000
  7
BIGFONT
  0
MTEXT
  5
5f2
100
AcDbEntity
  8
0
100
AcDbMText
 10
21.750000
 20
245.325000
 40
1.856250
 41
26.730000
 71
     1
 72
     5
  1
\fＭＳ ゴシック|b0|i0|c128|p49;\T1.4384;規定落下高さ
 44
1.597188
 73
     1
 11
0.0000000000000000
 21
1.000000
 31
0.000000
  7
BIGFONT
  0
MTEXT
  5
5f5
100
AcDbEntity
  8
0
100
AcDbMText
 10
21.725000
 20
164.875000
 40
2.381250
 41
102.870000
 71
     1
 72
     5
  1
\fＭＳ 明朝|b0|i0|c128|p17;\T1.0200;※全地連ボーリングハンドブックによる
 44
1.034881
 73
     1
  7
BIGFONT
  0
ENDSEC
  0
SECTION
  2
OBJECTS
  0
DICTIONARY
  5
600
100
AcDbDictionary
281
     1
  3
ACAD_COLOR
350
601
  3
ACAD_GROUP
350
602
  3
ACAD_LAYOUT
350
603
  3
ACAD_MATERIAL
350
604
  3
ACAD_MLINESTYLE
350
605
  3
CONTENTDICTIONARY
350
60b
  0
DICTIONARY
  5
601
102
{ACAD_REACTORS
330
600
102
}
330
600
100
AcDbDictionary
281
     1
  0
DICTIONARY
  5
602
102
{ACAD_REACTORS
330
600
102
}
330
600
100
AcDbDictionary
281
     1
  3
Layout1
350
60c
  3
Layout2
350
60d
  3
Model
350
650
  0
DICTIONARY
  5
603
102
{ACAD_REACTORS
330
600
102
}
330
600
100
AcDbDictionary
281
     1
  0
DICTIONARY
  5
604
102
{ACAD_REACTORS
330
600
102
}
330
600
100
AcDbDictionary
281
     1
  0
DICTIONARY
  5
605
102
{ACAD_REACTORS
330
600
102
}
330
600
100
AcDbDictionary
281
     1
  3
Standard
350
60e
  0
DICTIONARY
  5
606
102
{ACAD_REACTORS
330
600
102
}
330
600
100
AcDbDictionary
281
     1
  0
ACDBDICTIONARYWDFLT
  5
607
102
{ACAD_REACTORS
330
600
102
}
330
600
100
AcDbDictionary
281
     1
  3
Normal
350
651
100
AcDbDictionaryWithDefault
340
651
  0
DICTIONARY
  5
608
102
{ACAD_REACTORS
330
600
102
}
330
600
100
AcDbDictionary
281
     1
  3
Standard
350
652
  0
DICTIONARY
  5
609
102
{ACAD_REACTORS
330
600
102
}
330
600
100
AcDbDictionary
281
     1
  3
CEPSNTYPE
350
610
  3
FINGERPRINTGUID
350
611
  3
HYPERLINKBASE
350
612
  3
INSUNITS
350
613
  3
LAYOUTDICT
350
614
  3
LWETCUNION
350
615
  3
PLOTSETDICT
350
616
  3
PLOTSTYLNAMDICT
350
617
  3
PSVPSCALE
350
618
  3
PUCSBASE
350
619
  3
PUCSORGBACK
350
61a
  3
PUCSORGBOTTOM
350
61b
  3
PUCSORGFRONT
350
61c
  3
PUCSORGLEFT
350
61d
  3
PUCSORGRIGHT
350
61e
  3
PUCSORGTOP
350
61f
  3
PUCSORTHOREF
350
620
  3
PUCSORTHOVIEW
350
621
  3
STYLESHEET
350
622
  3
TSTACKALIGN
350
623
  3
TSTACKSIZE
350
624
  3
UCSBASE
350
625
  3
UCSORGBACK
350
626
  3
UCSORGBOTTOM
350
627
  3
UCSORGFRONT
350
628
  3
UCSORGLEFT
350
629
  3
UCSORGRIGHT
350
62a
  3
UCSORGTOP
350
62b
  3
UCSORTHOREF
350
62c
  3
UCSORTHOVIEW
350
62d
  3
VERSIONGUID
350
62e
  0
DICTIONARY
  5
60a
102
{ACAD_REACTORS
330
600
102
}
330
600
100
AcDbDictionary
281
     1
  3
CTABLESTYLE
350
62f
  3
DIMASSOC
350
630
  3
HIDETEXT
350
631
  3
PROJECTNAME
350
632
  0
LAYOUT
  5
60b
102
{ACAD_XDICTIONARY
360
916
102
}
102
{ACAD_REACTORS
330
601
102
}
330
601
100
AcDbPlotSettings
  1

  2

  4

  6

 40
0.000000
 41
0.000000
 42
0.000000
 43
0.000000
 44
0.000000
 45
0.000000
 46
0.000000
 47
0.000000
 48
0.000000
 49
0.000000
140
0.000000
141
0.000000
142
1.000000
143
1.000000
 70
   688
 72
     0
 73
     0
 74
     5
  7

 75
    16
147
1.000000
148
0.000000
149
0.000000
100
AcDbLayout
  1
Layout1
 70
     1
 71
     1
 10
0.000000
 20
0.000000
 11
199.000000
 21
285.000000
 12
0.000000
 22
0.000000
 32
0.000000
 14
100000000000000000000.000000
 24
100000000000000000000.000000
 34
100000000000000000000.000000
 15
-100000000000000000000.000000
 25
-100000000000000000000.000000
 35
-100000000000000000000.000000
146
0.000000
 13
0.000000
 23
0.000000
 33
0.000000
 16
1.000000
 26
0.000000
 36
0.000000
 17
0.000000
 27
1.000000
 37
0.000000
 76
     0
330
605
  0
LAYOUT
  5
60c
102
{ACAD_XDICTIONARY
360
918
102
}
102
{ACAD_REACTORS
330
601
102
}
330
601
100
AcDbPlotSettings
  1

  2

  4

  6

 40
0.000000
 41
0.000000
 42
0.000000
 43
0.000000
 44
0.000000
 45
0.000000
 46
0.000000
 47
0.000000
 48
0.000000
 49
0.000000
140
0.000000
141
0.000000
142
1.000000
143
1.000000
 70
   688
 72
     0
 73
     0
 74
     5
  7

 75
    16
147
1.000000
148
0.000000
149
0.000000
100
AcDbLayout
  1
Layout2
 70
     1
 71
     2
 10
0.000000
 20
0.000000
 11
199.000000
 21
285.000000
 12
0.000000
 22
0.000000
 32
0.000000
 14
0.000000
 24
0.000000
 34
0.000000
 15
0.000000
 25
0.000000
 35
0.000000
146
0.000000
 13
0.000000
 23
0.000000
 33
0.000000
 16
1.000000
 26
0.000000
 36
0.000000
 17
0.000000
 27
1.000000
 37
0.000000
 76
     0
330
60c
  0
LAYOUT
  5
60d
102
{ACAD_XDICTIONARY
360
91a
102
}
102
{ACAD_REACTORS
330
601
102
}
330
601
100
AcDbPlotSettings
  1

  2

  4

  6

 40
0.000000
 41
0.000000
 42
0.000000
 43
0.000000
 44
0.000000
 45
0.000000
 46
0.000000
 47
0.000000
 48
0.000000
 49
0.000000
140
0.000000
141
0.000000
142
1.000000
143
1.000000
 70
  1712
 72
     0
 73
     0
 74
     0
  7

 75
    16
147
1.000000
148
0.000000
149
0.000000
100
AcDbLayout
  1
Model
 70
     1
 71
     0
 10
0.000000
 20
0.000000
 11
199.000000
 21
285.000000
 12
0.000000
 22
0.000000
 32
0.000000
 14
0.000000
 24
0.000000
 34
0.000000
 15
0.000000
 25
0.000000
 35
0.000000
146
0.000000
 13
0.000000
 23
0.000000
 33
0.000000
 16
1.000000
 26
0.000000
 36
0.000000
 17
0.000000
 27
1.000000
 37
0.000000
 76
     0
330
60d
  0
MLINESTYLE
  5
60e
102
{ACAD_REACTORS
330
60d
102
}
330
60d
100
AcDbMlineStyle
  2
STANDARD
 70
     0
  3
 
 62
   256
 51
90.000000
 52
90.000000
 71
     2
 49
0.500000
 62
   256
  6
BYLAYER
 49
-0.500000
 62
   256
  6
BYLAYER
  0
ACDBPLACEHOLDER
  5
60f
102
{ACAD_REACTORS
330
60e
102
}
330
60e
  0
DICTIONARY
  5
916
100
AcDbDictionary
280
     1
281
     1
  3
ACAD_XREC_ROUNDTRIP
360
917
  0
DICTIONARY
  5
918
100
AcDbDictionary
280
     1
281
     1
  3
ACAD_XREC_ROUNDTRIP
360
919
  0
DICTIONARY
  5
91a
100
AcDbDictionary
280
     1
281
     1
  3
ACAD_XREC_ROUNDTRIP
360
91b
  0
XRECORD
  5
917
102
{ACAD_REACTORS
330
916
102
}
330
916
100
AcDbXrecord
280
     1
102
SHADEPLOT
 70
     0
102
SHADEPLOTRESLEVEL
 70
     2
102
SHADEPLOTCUSTOMDPI
 70
   300
  0
XRECORD
  5
919
102
{ACAD_REACTORS
330
918
102
}
330
918
100
AcDbXrecord
280
     1
102
SHADEPLOT
 70
     0
102
SHADEPLOTRESLEVEL
 70
     2
102
SHADEPLOTCUSTOMDPI
 70
   300
  0
XRECORD
  5
91b
102
{ACAD_REACTORS
330
91a
102
}
330
91a
100
AcDbXrecord
280
     1
102
SHADEPLOT
 70
     0
102
SHADEPLOTRESLEVEL
 70
     2
102
SHADEPLOTCUSTOMDPI
 70
   300
  0
ENDSEC
  0
EOF
