  0
SECTION
  2
HEADER
  9
$ACADVER
  1
AC1018
  9
$ACADMAINTVER
 70
     0
  9
$DWGCODEPAGE
  3
ANSI_932
  9
$INSBASE
 10
0.000000
 20
0.000000
 30
0.000000
  9
$EXTMIN
 10
0.000000
 20
0.000000
 30
0.000000
  9
$EXTMAX
 10
140.000000
 20
212.000000
 30
0.000000
  9
$LIMMIN
 10
0.000000
 20
0.000000
  9
$LIMMAX
 10
140.000000
 20
212.000000
  9
$ORTHOMODE
 70
     0
  9
$REGENMODE
 70
     1
  9
$FILLMODE
 70
     1
  9
$QTEXTMODE
 70
     0
  9
$MIRRTEXT
 70
     1
  9
$LTSCALE
 40
1.000000
  9
$ATTMODE
 70
     1
  9
$TEXTSIZE
 40
2.500000
  9
$TRACEWID
 40
1.000000
  9
$TEXTSTYLE
  7
BIGFONT
  9
$CLAYER
  8
0
  9
$CELTYPE
  6
BYLAYER
  9
$CECOLOR
 62
   256
  9
$CELTSCALE
 40
1.000000
  9
$DISPSILH
 70
     0
  9
$DIMSCALE
 40
1.000000
  9
$DIMASZ
 40
2.500000
  9
$DIMEXO
 40
0.625000
  9
$DIMDLI
 40
3.750000
  9
$DIMRND
 40
0.000000
  9
$DIMDLE
 40
0.000000
  9
$DIMEXE
 40
1.250000
  9
$DIMTP
 40
0.000000
  9
$DIMTM
 40
0.000000
  9
$DIMTXT
 40
2.500000
  9
$DIMCEN
 40
2.500000
  9
$DIMTSZ
 40
0.000000
  9
$DIMTOL
 70
     0
  9
$DIMLIM
 70
     0
  9
$DIMTIH
 70
     0
  9
$DIMTOH
 70
     0
  9
$DIMSE1
 70
     0
  9
$DIMSE2
 70
     0
  9
$DIMTAD
 70
     1
  9
$DIMZIN
 70
     8
  9
$DIMBLK
  1

  9
$DIMASO
 70
     1
  9
$DIMSHO
 70
     1
  9
$DIMPOST
  1

  9
$DIMAPOST
  1

  9
$DIMALT
 70
     0
  9
$DIMALTD
 70
     4
  9
$DIMALTF
 40
0.039400
  9
$DIMLFAC
 40
1.000000
  9
$DIMTOFL
 70
     1
  9
$DIMTVP
 40
0.000000
  9
$DIMTIX
 70
     0
  9
$DIMSOXD
 70
     0
  9
$DIMSAH
 70
     0
  9
$DIMBLK1
  1

  9
$DIMBLK2
  1

  9
$DIMSTYLE
  2
STANDARD
  9
$DIMCLRD
 70
     0
  9
$DIMCLRE
 70
     0
  9
$DIMCLRT
 70
     0
  9
$DIMTFAC
 40
1.000000
  9
$DIMGAP
 40
0.625000
  9
$DIMJUST
 70
     0
  9
$DIMSD1
 70
     0
  9
$DIMSD2
 70
     0
  9
$DIMTOLJ
 70
     1
  9
$DIMTZIN
 70
     0
  9
$DIMALTZ
 70
     0
  9
$DIMALTTZ
 70
     0
  9
$DIMUPT
 70
     0
  9
$DIMDEC
 70
     4
  9
$DIMTDEC
 70
     4
  9
$DIMALTU
 70
     8
  9
$DIMALTTD
 70
     4
  9
$DIMTXSTY
  7
STANDARD
  9
$DIMAUNIT
 70
     0
  9
$DIMADEC
 70
     0
  9
$DIMALTRND
 40
0.000000
  9
$DIMAZIN
 70
     0
  9
$DIMDSEP
 70
    46
  9
$DIMATFIT
 70
     3
  9
$DIMFRAC
 70
     0
  9
$DIMLDRBLK
  1

  9
$DIMLUNIT
 70
     2
  9
$DIMLWD
 70
-2
  9
$DIMLWE
 70
-2
  9
$DIMTMOVE
 70
     0
  9
$LUNITS
 70
     2
  9
$LUPREC
 70
     4
  9
$AXISMODE
 70
     0
  9
$SKETCHINC
 40
1.000000
  9
$FILLETRAD
 40
10.000000
  9
$AUNITS
 70
     0
  9
$AUPREC
 70
     0
  9
$MENU
  1
acad
  9
$ELEVATION
 40
0.000000
  9
$PELEVATION
 40
0.000000
  9
$THICKNESS
 40
0.000000
  9
$LIMCHECK
 70
     0
  9
$BLIPMODE
 70
     0
  9
$CHAMFERA
 40
10.000000
  9
$CHAMFERB
 40
10.000000
  9
$CHAMFERC
 40
20.000000
  9
$CHAMFERD
 40
0.000000
  9
$SKPOLY
 70
     0
  9
$TDCREATE
 40
2447851.677998
  9
$TDUCREATE
 40
2447851.677998
  9
$TDUPDATE
 40
2447851.677998
  9
$TDUUPDATE
 40
2447851.677998
  9
$TDINDWG
 40
0.000000
  9
$TDUSRTIMER
 40
0.000000
  9
$USRTIMER
 70
     1
  9
$ANGBASE
 50
0.000000
  9
$ANGDIR
 70
     0
  9
$PDMODE
 70
     0
  9
$PDSIZE
 40
0.000000
  9
$PLINEWID
 40
0.000000
  9
$SPLFRAME
 70
     0
  9
$SPLINETYPE
 70
     6
  9
$SPLINESEGS
 70
     8
  9
$HANDSEED
  5
FFFFFFF
  9
$SURFTAB1
 70
     6
  9
$SURFTAB2
 70
     6
  9
$SURFTYPE
 70
     6
  9
$SURFU
 70
     6
  9
$SURFV
 70
     6
  9
$UCSBASE
  2

  9
$UCSNAME
  2

  9
$UCSORG
 10
0.000000
 20
0.000000
 30
0.000000
  9
$UCSXDIR
 10
1.000000
 20
0.000000
 30
0.000000
  9
$UCSYDIR
 10
0.000000
 20
1.000000
 30
0.000000
  9
$UCSORTHOREF
  2

  9
$UCSORTHOVIEW
 70
     0
  9
$UCSORGTOP
 10
0.000000
 20
0.000000
 30
0.000000
  9
$UCSORGBOTTOM
 10
0.000000
 20
0.000000
 30
0.000000
  9
$UCSORGLEFT
 10
0.000000
 20
0.000000
 30
0.000000
  9
$UCSORGRIGHT
 10
0.000000
 20
0.000000
 30
0.000000
  9
$UCSORGFRONT
 10
0.000000
 20
0.000000
 30
0.000000
  9
$UCSORGBACK
 10
0.000000
 20
0.000000
 30
0.000000
  9
$PUCSBASE
  2

  9
$PUCSNAME
  2

  9
$PUCSORG
 10
0.000000
 20
0.000000
 30
0.000000
  9
$PUCSXDIR
 10
1.000000
 20
0.000000
 30
0.000000
  9
$PUCSYDIR
 10
0.000000
 20
1.000000
 30
0.000000
  9
$PUCSORTHOREF
  2

  9
$PUCSORTHOVIEW
 70
     0
  9
$PUCSORGTOP
 10
0.000000
 20
0.000000
 30
0.000000
  9
$PUCSORGBOTTOM
 10
0.000000
 20
0.000000
 30
0.000000
  9
$PUCSORGLEFT
 10
0.000000
 20
0.000000
 30
0.000000
  9
$PUCSORGRIGHT
 10
0.000000
 20
0.000000
 30
0.000000
  9
$PUCSORGFRONT
 10
0.000000
 20
0.000000
 30
0.000000
  9
$PUCSORGBACK
 10
0.000000
 20
0.000000
 30
0.000000
  9
$USERI1
 70
     0
  9
$USERI2
 70
     0
  9
$USERI3
 70
     0
  9
$USERI4
 70
     0
  9
$USERI5
 70
     0
  9
$USERR1
 40
0.000000
  9
$USERR2
 40
0.000000
  9
$USERR3
 40
0.000000
  9
$USERR4
 40
0.000000
  9
$USERR5
 40
0.000000
  9
$WORLDVIEW
 70
     1
  9
$SHADEDGE
 70
     3
  9
$SHADEDIF
 70
    70
  9
$TILEMODE
 70
     1
  9
$MAXACTVP
 70
    48
  9
$PINSBASE
 10
0.000000
 20
0.000000
 30
0.000000
  9
$PLIMCHECK
 70
     0
  9
$PEXTMIN
 10
100000000000000000000.000000
 20
100000000000000000000.000000
 30
100000000000000000000.000000
  9
$PEXTMAX
 10
-100000000000000000000.000000
 20
-100000000000000000000.000000
 30
-100000000000000000000.000000
  9
$PLIMMIN
 10
0.000000
 20
0.000000
  9
$PLIMMAX
 10
140.000000
 20
212.000000
  9
$UNITMODE
 70
     0
  9
$VISRETAIN
 70
     1
  9
$PLINEGEN
 70
     0
  9
$PSLTSCALE
 70
     1
  9
$TREEDEPTH
 70
  3020
  9
$CMLSTYLE
  2
STANDARD
  9
$CMLJUST
 70
     0
  9
$CMLSCALE
 40
20.000000
  9
$PROXYGRAPHICS
 70
     1
  9
$MEASUREMENT
 70
     1
  9
$CELWEIGHT
370
-1
  9
$ENDCAPS
280
     0
  9
$JOINSTYLE
280
     0
  9
$LWDISPLAY
290
     1
  9
$INSUNITS
 70
     0
  9
$HYPERLINKBASE
  1

  9
$STYLESHEET
  1

  9
$XEDIT
290
     1
  9
$CEPSNTYPE
380
     0
  9
$PSTYLEMODE
290
     1
  9
$FINGERPRINTGUID
  2
{01801163-5BC0-459E-B9C7-2188C09ED432}
  9
$VERSIONGUID
  2
{7F326DDD-95DF-42AD-9861-A0CD9F0961F2}
  9
$EXTNAMES
290
     1
  9
$PSVPSCALE
 40
0.0
  9
$OLESTARTUP
290
     0
  9
$SORTENTS
280
   127
  9
$INDEXCTL
280
     0
  9
$HIDETEXT
280
     1
  9
$XCLIPFRAME
290
     0
  9
$HALOGAP
280
     0
  9
$OBSCOLOR
 70
   257
  9
$OBSLTYPE
280
     0
  9
$INTERSECTIONDISPLAY
280
     0
  9
$INTERSECTIONCOLOR
 70
   257
  9
$DIMASSOC
280
     2
  9
$PROJECTNAME
  1

  0
ENDSEC
  0
SECTION
  2
TABLES
  0
TABLE
  2
VPORT
  5
a2
100
AcDbSymbolTable
 70
     2
  0
VPORT
  5
a5
100
AcDbSymbolTableRecord
100
AcDbViewportTableRecord
  2
*ACTIVE
 70
     0
 10
0.000000
 20
0.000000
 11
1.000000
 21
1.000000
 12
300.000000
 22
200.000000
 13
0.000000
 23
0.000000
 14
10.000000
 24
10.000000
 15
10.000000
 25
10.000000
 16
0.000000
 26
0.000000
 36
1.000000
 17
0.000000
 27
0.000000
 37
0.000000
 40
300.000000
 41
1.600432
 42
50.000000
 43
0.000000
 44
0.000000
 50
0.000000
 51
0.000000
 71
     0
 72
   100
 73
     1
 74
     1
 75
     0
 76
     0
 77
     0
 78
     0
  0
ENDTAB
  0
TABLE
  2
LTYPE
  5
a8
100
AcDbSymbolTable
 70
    11
  0
LTYPE
  5
ab
100
AcDbSymbolTableRecord
100
AcDbLinetypeTableRecord
  2
BYBLOCK
 70
    64
  3
BYBLOCK
 72
    65
 73
     0
 40
0.000000
  0
LTYPE
  5
ae
100
AcDbSymbolTableRecord
100
AcDbLinetypeTableRecord
  2
BYLAYER
 70
    64
  3
BYLAYER
 72
    65
 73
     0
 40
0.000000
  0
LTYPE
  5
b1
100
AcDbSymbolTableRecord
100
AcDbLinetypeTableRecord
  2
CONTINUOUS
 70
    64
  3
実線
 72
    65
 73
     0
 40
0.000000
  0
LTYPE
  5
b4
100
AcDbSymbolTableRecord
100
AcDbLinetypeTableRecord
  2
DASHED
 70
    64
  3
__ __ __ __ __ __ __ __ __ __ __ __ __ __ __
 72
    65
 73
     2
 40
0.750000
 49
0.500000
 74
     0
 49
-0.250000
 74
     0
  0
LTYPE
  5
b7
100
AcDbSymbolTableRecord
100
AcDbLinetypeTableRecord
  2
HIDDEN
 70
    64
  3
_ _ _ _ _ _ _ _ _ _ _ _ _ _ _ _ _ _ _ _ _ _ _
 72
    65
 73
     2
 40
0.375000
 49
0.250000
 74
     0
 49
-0.125000
 74
     0
  0
LTYPE
  5
ba
100
AcDbSymbolTableRecord
100
AcDbLinetypeTableRecord
  2
CENTER
 70
    64
  3
____ _ ____ _ ____ _ ____ _ ____ _ ____ _ ____
 72
    65
 73
     4
 40
2.000000
 49
1.250000
 74
     0
 49
-0.250000
 74
     0
 49
0.250000
 74
     0
 49
-0.250000
 74
     0
  0
LTYPE
  5
bd
100
AcDbSymbolTableRecord
100
AcDbLinetypeTableRecord
  2
PHANTOM
 70
    64
  3
_____ _ _ _____ _ _ _____ _ _ _____ _ _ ____
 72
    65
 73
     6
 40
2.500000
 49
1.250000
 74
     0
 49
-0.250000
 74
     0
 49
0.250000
 74
     0
 49
-0.250000
 74
     0
 49
0.250000
 74
     0
 49
-0.250000
 74
     0
  0
LTYPE
  5
c0
100
AcDbSymbolTableRecord
100
AcDbLinetypeTableRecord
  2
DOT
 70
    64
  3
...............................................
 72
    65
 73
     2
 40
0.250000
 49
0.000000
 74
     0
 49
-0.250000
 74
     0
  0
LTYPE
  5
c3
100
AcDbSymbolTableRecord
100
AcDbLinetypeTableRecord
  2
DASHDOT
 70
    64
  3
__ . __ . __ . __ . __ . __ . __ . __ . __ . __
 72
    65
 73
     4
 40
1.000000
 49
0.500000
 74
     0
 49
-0.250000
 74
     0
 49
0.000000
 74
     0
 49
-0.250000
 74
     0
  0
LTYPE
  5
c6
100
AcDbSymbolTableRecord
100
AcDbLinetypeTableRecord
  2
BORDER
 70
    64
  3
__ __ . __ __ . __ __ . __ __ . __ __ . __ __
 72
    65
 73
     6
 40
1.750000
 49
0.500000
 74
     0
 49
-0.250000
 74
     0
 49
0.500000
 74
     0
 49
-0.250000
 74
     0
 49
0.000000
 74
     0
 49
-0.250000
 74
     0
  0
LTYPE
  5
c9
100
AcDbSymbolTableRecord
100
AcDbLinetypeTableRecord
  2
DIVIDE
 70
    64
  3
__ . . __ . . __ . . __ . . __ . . __ . . __
 72
    65
 73
     6
 40
1.250000
 49
0.500000
 74
     0
 49
-0.250000
 74
     0
 49
0.000000
 74
     0
 49
-0.250000
 74
     0
 49
0.000000
 74
     0
 49
-0.250000
 74
     0
  0
ENDTAB
  0
TABLE
  2
LAYER
  5
cc
100
AcDbSymbolTable
 70
     2
  0
LAYER
  5
cf
100
AcDbSymbolTableRecord
100
AcDbLayerTableRecord
  2
0
 70
     0
 62
     7
  6
CONTINUOUS
370
 65533
390
	F
  0
LAYER
  5
d2
100
AcDbSymbolTableRecord
100
AcDbLayerTableRecord
  2
B
 70
     0
 62
     7
  6
CONTINUOUS
370
 65533
390
	F
  0
LAYER
  5
d5
100
AcDbSymbolTableRecord
100
AcDbLayerTableRecord
  2
C
 70
     0
 62
     7
  6
CONTINUOUS
370
 65533
390
	F
  0
LAYER
  5
d8
100
AcDbSymbolTableRecord
100
AcDbLayerTableRecord
  2
D
 70
     0
 62
     7
  6
CONTINUOUS
370
 65533
390
	F
  0
LAYER
  5
db
100
AcDbSymbolTableRecord
100
AcDbLayerTableRecord
  2
E
 70
     0
 62
     7
  6
CONTINUOUS
370
 65533
390
	F
  0
LAYER
  5
de
100
AcDbSymbolTableRecord
100
AcDbLayerTableRecord
  2
F
 70
     0
 62
     7
  6
CONTINUOUS
370
 65533
390
	F
  0
LAYER
  5
e1
100
AcDbSymbolTableRecord
100
AcDbLayerTableRecord
  2
G
 70
     0
 62
     7
  6
CONTINUOUS
370
 65533
390
	F
  0
LAYER
  5
e4
100
AcDbSymbolTableRecord
100
AcDbLayerTableRecord
  2
H
 70
     0
 62
     7
  6
CONTINUOUS
370
 65533
390
	F
  0
LAYER
  5
e7
100
AcDbSymbolTableRecord
100
AcDbLayerTableRecord
  2
I
 70
     0
 62
     7
  6
CONTINUOUS
370
 65533
390
	F
  0
LAYER
  5
ea
100
AcDbSymbolTableRecord
100
AcDbLayerTableRecord
  2
J
 70
     0
 62
     7
  6
CONTINUOUS
370
 65533
390
	F
  0
LAYER
  5
ed
100
AcDbSymbolTableRecord
100
AcDbLayerTableRecord
  2
K
 70
     0
 62
     7
  6
CONTINUOUS
370
 65533
390
	F
  0
LAYER
  5
f0
100
AcDbSymbolTableRecord
100
AcDbLayerTableRecord
  2
L
 70
     0
 62
     7
  6
CONTINUOUS
370
 65533
390
	F
  0
LAYER
  5
f3
100
AcDbSymbolTableRecord
100
AcDbLayerTableRecord
  2
M
 70
     0
 62
     7
  6
CONTINUOUS
370
 65533
390
	F
  0
LAYER
  5
f6
100
AcDbSymbolTableRecord
100
AcDbLayerTableRecord
  2
N
 70
     0
 62
     7
  6
CONTINUOUS
370
 65533
390
	F
  0
ENDTAB
  0
TABLE
  2
STYLE
  5
f9
100
AcDbSymbolTable
 70
     2
  0
STYLE
  5
fc
100
AcDbSymbolTableRecord
100
AcDbTextStyleTableRecord
  2
STANDARD
 70
     0
 40
0.000000
 41
0.500000
 50
0.000000
 71
     0
 42
0.300000
  3
txt
  4

  0
STYLE
  5
ff
100
AcDbSymbolTableRecord
100
AcDbTextStyleTableRecord
  2
BIGFONT
 70
    64
 40
0.000000
 41
1.000000
 50
0.000000
 71
     0
 42
0.200000
  3

  4
bigfont
  0
ENDTAB
  0
TABLE
  2
VIEW
  5
102
100
AcDbSymbolTable
 70
     0
  0
ENDTAB
  0
TABLE
  2
UCS
  5
105
100
AcDbSymbolTable
 70
     0
  0
ENDTAB
  0
TABLE
  2
APPID
  5
108
100
AcDbSymbolTable
 70
     3
  0
APPID
  5
10b
100
AcDbSymbolTableRecord
100
AcDbRegAppTableRecord
  2
ACAD
 70
     0
  0
APPID
  5
10e
100
AcDbSymbolTableRecord
100
AcDbRegAppTableRecord
  2
CONTENTTABDATA
 70
     0
  0
APPID
  5
111
100
AcDbSymbolTableRecord
100
AcDbRegAppTableRecord
  2
CONTENTCURRENTTAB
 70
     0
  0
ENDTAB
  0
TABLE
  2
DIMSTYLE
  5
114
330
     0
100
AcDbSymbolTable
 70
     2
100
AcDbDimStyleTable
 70
     1
  0
DIMSTYLE
105
117
100
AcDbSymbolTableRecord
100
AcDbDimStyleTableRecord
  2
STANDARD
 70
     0
  3

  4

  5

  6

  7

 40
1.000000
 41
0.180000
 42
0.062500
 43
0.380000
 44
0.180000
 45
0.000000
 46
0.000000
 47
0.000000
 48
0.000000
140
0.180000
141
0.090000
142
0.000000
143
25.400000
144
1.000000
145
0.000000
146
1.000000
147
0.090000
 71
     0
 72
     0
 73
     1
 74
     1
 75
     0
 76
     0
 77
     0
 78
     0
170
     0
171
     2
172
     0
173
     0
174
     0
175
     0
176
     0
177
     0
178
     0
270
     2
271
     4
272
     4
273
     2
274
     2
340
fc
275
     0
280
     0
281
     0
282
     0
283
     1
284
     0
285
     0
286
     0
287
     3
288
     0
  0
ENDTAB
  0
TABLE
  2
BLOCK_RECORD
  5
11a
100
AcDbSymbolTable
 70
     0
  0
BLOCK_RECORD
  5
11d
100
AcDbSymbolTableRecord
100
AcDbBlockTableRecord
  2
*MODEL_SPACE
  0
BLOCK_RECORD
  5
120
100
AcDbSymbolTableRecord
100
AcDbBlockTableRecord
  2
*PAPER_SPACE
  0
ENDTAB
  0
ENDSEC
  0
SECTION
  2
BLOCKS
  0
BLOCK
  5
123
330
124
100
AcDbEntity
  8
0
100
AcDbBlockBegin
  2
*Model_Space
 70
     0
 10
0.000000
 20
0.000000
 30
0.000000
  3
*Model_Space
  1
 
  0
ENDBLK
  5
126
330
124
100
AcDbEntity
  8
0
100
AcDbBlockEnd
  0
BLOCK
  5
129
330
12a
100
AcDbEntity
 67
     1
  8
0
100
AcDbBlockBegin
  2
*Paper_Space
 70
     0
 10
0.000000
 20
0.000000
 30
0.000000
  3
*Paper_Space
  1
 
  0
ENDBLK
  5
12c
330
12d
100
AcDbEntity
 67
     1
  8
0
100
AcDbBlockEnd
  0
ENDSEC
  0
SECTION
  2
ENTITIES
  0
LINE
  5
12f
100
AcDbEntity
  8
0
370
    40
100
AcDbLine
 10
35.525000
 20
183.150000
 11
35.525000
 21
166.325000
  0
LINE
  5
132
100
AcDbEntity
  8
0
370
    40
100
AcDbLine
 10
45.675000
 20
183.150000
 11
45.675000
 21
171.400000
  0
LINE
  5
135
100
AcDbEntity
  8
0
370
    40
100
AcDbLine
 10
46.150000
 20
181.450000
 11
55.325000
 21
181.475000
  0
LINE
  5
138
100
AcDbEntity
  8
0
370
    40
100
AcDbLine
 10
81.525000
 20
181.350000
 11
97.450000
 21
181.375000
  0
LINE
  5
13b
100
AcDbEntity
  8
0
  6
DOT
 62
     7
370
    20
100
AcDbLine
 10
63.125000
 20
181.550000
 11
76.125000
 21
181.550000
  0
LINE
  5
13e
100
AcDbEntity
  8
0
  6
DOT
 62
     7
370
    20
100
AcDbLine
 10
75.700000
 20
181.575000
 11
81.575000
 21
181.200000
  0
ELLIPSE
  5
141
100
AcDbEntity
  8
0
370
    40
100
AcDbEllipse
 10
57.400000
 20
183.775000
 30
0.000000
 11
1.575000
 21
-0.000000000000000
 31
0.000000
210
0.000000
220
0.000000
230
1.000000
 40
0.603175
 41
0.000000
 42
6.283185
  0
LINE
  5
144
100
AcDbEntity
  8
0
370
    40
100
AcDbLine
 10
55.825000
 20
183.775000
 11
55.825000
 21
177.750000
  0
LINE
  5
147
100
AcDbEntity
  8
0
370
    40
100
AcDbLine
 10
59.000000
 20
183.775000
 11
59.000000
 21
177.750000
  0
LINE
  5
14a
100
AcDbEntity
  8
0
370
    40
100
AcDbLine
 10
55.825000
 20
177.750000
 11
57.400000
 21
176.800000
  0
LINE
  5
14d
100
AcDbEntity
  8
0
370
    40
100
AcDbLine
 10
57.400000
 20
176.800000
 11
59.000000
 21
177.750000
  0
LINE
  5
150
100
AcDbEntity
  8
0
370
    40
100
AcDbLine
 10
59.000000
 20
181.550000
 11
62.800000
 21
181.550000
  0
LWPOLYLINE
  5
153
100
AcDbEntity
  8
0
100
AcDbPolyline
 90
     4
 70
     1
 43
0.400000
 10
14.900000
 20
202.500000
 10
14.900000
 20
191.075000
 10
22.825000
 20
191.075000
 10
22.825000
 20
202.500000
  0
LWPOLYLINE
  5
15e
100
AcDbEntity
  8
0
100
AcDbPolyline
 90
     4
 70
     1
 43
0.400000
 10
24.425000
 20
185.950000
 10
24.425000
 20
182.475000
 10
31.400000
 20
182.475000
 10
31.400000
 20
185.950000
  0
LINE
  5
169
100
AcDbEntity
  8
0
370
    40
100
AcDbLine
 10
31.400000
 20
185.950000
 11
23.775000
 21
188.500000
  0
LINE
  5
16c
100
AcDbEntity
  8
0
370
    40
100
AcDbLine
 10
27.900000
 20
186.925000
 11
27.900000
 21
185.950000
  0
ELLIPSE
  5
16f
100
AcDbEntity
  8
0
370
    20
100
AcDbEllipse
 10
41.550000
 20
69.875000
 30
0.000000
 11
2.525000
 21
-0.000000000000000
 31
0.000000
210
0.000000
220
0.000000
230
1.000000
 40
0.376238
 41
0.000000
 42
6.283185
  0
ELLIPSE
  5
172
100
AcDbEntity
  8
0
370
    20
100
AcDbEllipse
 10
41.550000
 20
49.275000
 30
0.000000
 11
2.525000
 21
-0.000000000000000
 31
0.000000
210
0.000000
220
0.000000
230
1.000000
 40
0.376238
 41
3.141593
 42
6.283185
  0
LINE
  5
175
100
AcDbEntity
  8
0
370
    20
100
AcDbLine
 10
44.075000
 20
69.875000
 11
44.075000
 21
49.275000
  0
ELLIPSE
  5
178
100
AcDbEntity
  8
0
370
    20
100
AcDbEllipse
 10
41.550000
 20
53.375000
 30
0.000000
 11
2.525000
 21
-0.000000000000000
 31
0.000000
210
0.000000
220
0.000000
230
1.000000
 40
0.376238
 41
3.141593
 42
6.283185
  0
ELLIPSE
  5
17b
100
AcDbEntity
  8
0
370
    20
100
AcDbEllipse
 10
41.550000
 20
54.025000
 30
0.000000
 11
2.525000
 21
-0.000000000000000
 31
0.000000
210
0.000000
220
0.000000
230
1.000000
 40
0.376238
 41
3.141593
 42
6.283185
  0
ELLIPSE
  5
17e
100
AcDbEntity
  8
0
370
    20
100
AcDbEllipse
 10
41.550000
 20
65.750000
 30
0.000000
 11
2.525000
 21
-0.000000000000000
 31
0.000000
210
0.000000
220
0.000000
230
1.000000
 40
0.376238
 41
3.141593
 42
6.283185
  0
ELLIPSE
  5
181
100
AcDbEntity
  8
0
370
    20
100
AcDbEllipse
 10
41.550000
 20
65.125000
 30
0.000000
 11
2.525000
 21
-0.000000000000000
 31
0.000000
210
0.000000
220
0.000000
230
1.000000
 40
0.376238
 41
3.141593
 42
6.283185
  0
LINE
  5
184
100
AcDbEntity
  8
0
370
    20
100
AcDbLine
 10
39.000000
 20
69.875000
 11
39.000000
 21
65.125000
  0
LINE
  5
187
100
AcDbEntity
  8
0
370
    20
100
AcDbLine
 10
39.000000
 20
54.025000
 11
39.000000
 21
49.275000
  0
LINE
  5
18a
100
AcDbEntity
  8
0
370
    20
100
AcDbLine
 10
41.875000
 20
64.175000
 11
41.875000
 21
53.075000
  0
LWPOLYLINE
  5
18d
100
AcDbEntity
  8
0
100
AcDbPolyline
 90
     7
 70
     0
 43
0.200000
 10
38.700000
 20
64.800000
 10
38.050000
 20
63.550000
 10
37.750000
 20
62.275000
 10
37.425000
 20
60.375000
 10
37.425000
 20
58.150000
 10
38.050000
 20
55.925000
 10
39.000000
 20
54.025000
  0
ELLIPSE
  5
19e
100
AcDbEntity
  8
0
370
    40
100
AcDbEllipse
 10
40.600000
 20
39.425000
 30
0.000000
 11
5.075000
 21
-0.00000000000000
 31
0.000000
210
0.000000
220
0.000000
230
1.000000
 40
0.497537
 41
0.000000
 42
3.141593
  0
ELLIPSE
  5
1a1
100
AcDbEntity
  8
0
370
    40
100
AcDbEllipse
 10
40.600000
 20
39.425000
 30
0.000000
 11
5.075000
 21
-0.00000000000000
 31
0.000000
210
0.000000
220
0.000000
230
1.000000
 40
0.497537
 41
3.141593
 42
6.283185
  0
LWPOLYLINE
  5
1a4
100
AcDbEntity
  8
0
100
AcDbPolyline
 90
    11
 70
     0
 43
0.400000
 10
31.400000
 20
183.750000
 10
32.350000
 20
183.750000
 10
33.300000
 20
184.050000
 10
33.925000
 20
185.650000
 10
34.250000
 20
187.550000
 10
35.200000
 20
188.825000
 10
36.150000
 20
189.775000
 10
37.750000
 20
190.075000
 10
39.325000
 20
189.775000
 10
39.950000
 20
188.825000
 10
40.275000
 20
187.875000
  0
ELLIPSE
  5
1bd
100
AcDbEntity
  8
0
370
    40
100
AcDbEllipse
 10
57.100000
 20
187.900000
 30
0.000000
 11
-0.000000000000000
 21
-2.850000
 31
0.000000
210
0.000000
220
0.000000
230
1.000000
 40
0.438596
 41
1.009359
 42
2.132233
  0
ELLIPSE
  5
1c0
100
AcDbEntity
  8
0
370
    40
100
AcDbEllipse
 10
57.300000
 20
187.975000
 30
0.000000
 11
0.248394
 21
-2.839155
 31
0.000000
210
0.000000
220
0.000000
230
1.000000
 40
0.438596
 41
4.150952
 42
5.273826
  0
LINE
  5
1c3
100
AcDbEntity
  8
0
370
    40
100
AcDbLine
 10
58.050000
 20
189.500000
 11
56.150000
 21
189.500000
  0
LINE
  5
1c6
100
AcDbEntity
  8
0
370
    40
100
AcDbLine
 10
58.050000
 20
186.325000
 11
56.450000
 21
186.325000
  0
LINE
  5
1c9
100
AcDbEntity
  8
0
370
    40
100
AcDbLine
 10
57.400000
 20
186.000000
 11
57.400000
 21
183.450000
  0
LWPOLYLINE
  5
1cc
100
AcDbEntity
  8
0
100
AcDbPolyline
 90
     3
 70
     0
 43
0.400000
 10
56.450000
 20
185.050000
 10
57.400000
 20
183.450000
 10
58.350000
 20
185.050000
  0
LINE
  5
1d5
100
AcDbEntity
  8
0
370
    40
100
AcDbLine
 10
79.300000
 20
176.175000
 11
82.800000
 21
173.625000
  0
LINE
  5
1d8
100
AcDbEntity
  8
0
370
    40
100
AcDbLine
 10
79.300000
 20
176.175000
 11
83.100000
 21
175.200000
  0
LINE
  5
1db
100
AcDbEntity
  8
0
370
    40
100
AcDbLine
 10
79.300000
 20
176.175000
 11
78.975000
 21
174.900000
  0
LINE
  5
1de
100
AcDbEntity
  8
0
370
    40
100
AcDbLine
 10
62.800000
 20
191.400000
 11
59.325000
 21
194.250000
  0
LINE
  5
1e1
100
AcDbEntity
  8
0
370
    40
100
AcDbLine
 10
62.800000
 20
191.400000
 11
59.000000
 21
192.650000
  0
LINE
  5
1e4
100
AcDbEntity
  8
0
370
    40
100
AcDbLine
 10
62.800000
 20
191.400000
 11
62.800000
 21
192.350000
  0
LINE
  5
1e7
100
AcDbEntity
  8
0
370
    40
100
AcDbLine
 10
62.800000
 20
191.400000
 11
62.800000
 21
192.650000
  0
LINE
  5
1ea
100
AcDbEntity
  8
0
370
    40
100
AcDbLine
 10
55.825000
 20
188.525000
 11
52.650000
 21
188.525000
  0
LINE
  5
1ed
100
AcDbEntity
  8
0
370
    40
100
AcDbLine
 10
52.650000
 20
188.525000
 11
52.650000
 21
187.275000
  0
LINE
  5
1f0
100
AcDbEntity
  8
0
370
    40
100
AcDbLine
 10
52.650000
 20
187.275000
 11
55.825000
 21
187.275000
  0
LINE
  5
1f3
100
AcDbEntity
  8
0
370
    40
100
AcDbLine
 10
55.825000
 20
187.275000
 11
55.825000
 21
188.525000
  0
LINE
  5
1f6
100
AcDbEntity
  8
0
370
    40
100
AcDbLine
 10
55.500000
 20
192.350000
 11
55.500000
 21
188.225000
  0
LINE
  5
1f9
100
AcDbEntity
  8
0
  6
DOT
 62
     7
370
    20
100
AcDbLine
 10
58.050000
 20
188.225000
 11
68.525000
 21
188.225000
  0
LINE
  5
1fc
100
AcDbEntity
  8
0
  6
DOT
 62
     7
370
    20
100
AcDbLine
 10
68.525000
 20
188.225000
 11
68.525000
 21
192.350000
  0
LINE
  5
1ff
100
AcDbEntity
  8
0
370
    40
100
AcDbLine
 10
68.525000
 20
192.350000
 11
55.500000
 21
192.350000
  0
LINE
  5
202
100
AcDbEntity
  8
0
370
    40
100
AcDbLine
 10
72.650000
 20
177.125000
 11
72.650000
 21
173.000000
  0
LINE
  5
205
100
AcDbEntity
  8
0
370
    20
100
AcDbLine
 10
72.650000
 20
173.000000
 11
85.650000
 21
173.000000
  0
LINE
  5
208
100
AcDbEntity
  8
0
370
    40
100
AcDbLine
 10
85.650000
 20
173.000000
 11
85.650000
 21
177.125000
  0
LINE
  5
20b
100
AcDbEntity
  8
0
370
    40
100
AcDbLine
 10
85.650000
 20
177.125000
 11
72.650000
 21
177.125000
  0
LINE
  5
20e
100
AcDbEntity
  8
0
370
    40
100
AcDbLine
 10
72.650000
 20
173.000000
 11
85.650000
 21
173.000000
  0
LINE
  5
211
100
AcDbEntity
  8
0
  6
DOT
 62
     7
370
    20
100
AcDbLine
 10
85.650000
 20
173.000000
 11
68.525000
 21
188.225000
  0
LINE
  5
214
100
AcDbEntity
  8
0
  6
DOT
 62
     7
370
    20
100
AcDbLine
 10
68.525000
 20
188.225000
 11
58.050000
 21
188.225000
  0
LINE
  5
217
100
AcDbEntity
  8
0
370
    40
100
AcDbLine
 10
55.500000
 20
192.350000
 11
72.650000
 21
177.125000
  0
LINE
  5
21a
100
AcDbEntity
  8
0
370
    40
100
AcDbLine
 10
85.650000
 20
177.125000
 11
68.525000
 21
192.350000
  0
LINE
  5
21d
100
AcDbEntity
  8
0
  6
DOT
 62
     7
370
    20
100
AcDbLine
 10
55.500000
 20
188.225000
 11
56.150000
 21
188.225000
  0
LINE
  5
220
100
AcDbEntity
  8
0
370
    20
100
AcDbLine
 10
55.500000
 20
188.225000
 11
56.150000
 21
187.900000
  0
LINE
  5
223
100
AcDbEntity
  8
0
  6
DOT
 62
     7
370
    20
100
AcDbLine
 10
56.150000
 20
188.225000
 11
55.500000
 21
188.225000
  0
LINE
  5
226
100
AcDbEntity
  8
0
370
    40
100
AcDbLine
 10
72.650000
 20
173.000000
 11
58.050000
 21
185.675000
  0
LWPOLYLINE
  5
229
100
AcDbEntity
  8
0
100
AcDbPolyline
 90
     9
 70
     0
 43
0.400000
 10
22.825000
 20
193.600000
 10
35.525000
 20
193.600000
 10
38.375000
 20
193.600000
 10
40.275000
 20
193.300000
 10
41.550000
 20
192.350000
 10
42.175000
 20
190.750000
 10
42.175000
 20
189.175000
 10
42.175000
 20
188.850000
 10
42.175000
 20
189.175000
  0
LWPOLYLINE
  5
23e
100
AcDbEntity
  8
0
100
AcDbPolyline
 90
    15
 70
     0
 43
0.400000
 10
52.325000
 20
187.900000
 10
50.125000
 20
187.900000
 10
47.900000
 20
187.900000
 10
46.625000
 20
188.225000
 10
45.675000
 20
188.850000
 10
45.350000
 20
189.500000
 10
45.025000
 20
190.450000
 10
45.025000
 20
192.650000
 10
45.025000
 20
195.200000
 10
44.400000
 20
196.475000
 10
43.450000
 20
197.100000
 10
42.825000
 20
197.100000
 10
41.225000
 20
197.100000
 10
37.100000
 20
197.100000
 10
22.825000
 20
197.100000
  0
LINE
  5
25f
100
AcDbEntity
  8
0
370
    20
100
AcDbLine
 10
19.350000
 20
202.175000
 11
19.350000
 21
191.075000
  0
LINE
  5
262
100
AcDbEntity
  8
0
370
    20
100
AcDbLine
 10
15.850000
 20
202.500000
 11
15.850000
 21
191.075000
  0
LINE
  5
265
100
AcDbEntity
  8
0
370
    20
100
AcDbLine
 10
22.200000
 20
202.175000
 11
22.200000
 21
191.075000
  0
POINT
  5
268
100
AcDbEntity
  8
0
100
AcDbPoint
 10
20.925000
 20
200.600000
  0
POINT
  5
26b
100
AcDbEntity
  8
0
100
AcDbPoint
 10
20.925000
 20
198.700000
  0
POINT
  5
26e
100
AcDbEntity
  8
0
100
AcDbPoint
 10
20.925000
 20
192.650000
  0
LINE
  5
271
100
AcDbEntity
  8
0
370
    20
100
AcDbLine
 10
15.850000
 20
197.100000
 11
19.350000
 21
197.100000
  0
LINE
  5
274
100
AcDbEntity
  8
0
370
    20
100
AcDbLine
 10
15.850000
 20
201.850000
 11
19.350000
 21
201.850000
  0
LINE
  5
277
100
AcDbEntity
  8
0
370
    20
100
AcDbLine
 10
15.850000
 20
191.700000
 11
19.350000
 21
191.700000
  0
LINE
  5
27a
100
AcDbEntity
  8
0
370
    40
100
AcDbLine
 10
16.800000
 20
197.725000
 11
18.075000
 21
197.725000
  0
MTEXT
  5
27d
100
AcDbEntity
  8
0
100
AcDbMText
 10
51.225000
 20
50.625000
 40
1.856250
 41
26.730000
 71
     1
 72
     5
  1
\fＭＳ ゴシック|b0|i0|c128|p49;\T1.8854;３成分地震計
 44
1.226497
 73
     1
  7
BIGFONT
  0
MTEXT
  5
280
100
AcDbEntity
  8
0
100
AcDbMText
 10
51.225000
 20
46.200000
 40
1.856250
 41
40.095000
 71
     1
 72
     5
  1
\fＭＳ ゴシック|b0|i0|c128|p49;\T1.8854;(上下、左右２方向)
 44
1.226497
 73
     1
  7
BIGFONT
  0
MTEXT
  5
283
100
AcDbEntity
  8
0
100
AcDbMText
 10
10.625000
 20
55.400000
 40
1.856250
 41
26.730000
 71
     1
 72
     5
  1
\fＭＳ ゴシック|b0|i0|c128|p49;\T1.8854;ゴムチューブ
 44
1.226497
 73
     1
  7
BIGFONT
  0
MTEXT
  5
286
100
AcDbEntity
  8
0
100
AcDbMText
 10
10.625000
 20
51.275000
 40
1.856250
 41
17.820000
 71
     1
 72
     5
  1
\fＭＳ ゴシック|b0|i0|c128|p49;\T1.8854;圧着装置
 44
1.226497
 73
     1
  7
BIGFONT
  0
LINE
  5
289
100
AcDbEntity
  8
0
370
    20
100
AcDbLine
 10
32.350000
 20
54.650000
 11
40.275000
 21
58.475000
  0
LINE
  5
28c
100
AcDbEntity
  8
0
370
    20
100
AcDbLine
 10
40.275000
 20
58.475000
 11
36.475000
 21
57.825000
  0
LINE
  5
28f
100
AcDbEntity
  8
0
370
    20
100
AcDbLine
 10
49.800000
 20
48.950000
 11
44.075000
 21
57.825000
  0
LINE
  5
292
100
AcDbEntity
  8
0
370
    20
100
AcDbLine
 10
44.075000
 20
57.500000
 11
48.200000
 21
54.650000
  0
ELLIPSE
  5
295
100
AcDbEntity
  8
0
  6
DOT
 62
     7
370
    20
100
AcDbEllipse
 10
41.550000
 20
110.500000
 30
0.000000
 11
2.525000
 21
-0.000000000000000
 31
0.000000
210
0.000000
220
0.000000
230
1.000000
 40
0.376238
 41
0.000000
 42
6.283185
  0
ELLIPSE
  5
298
100
AcDbEntity
  8
0
  6
DOT
 62
     7
370
    20
100
AcDbEllipse
 10
41.550000
 20
89.875000
 30
0.000000
 11
2.525000
 21
-0.000000000000000
 31
0.000000
210
0.000000
220
0.000000
230
1.000000
 40
0.376238
 41
3.141593
 42
6.283185
  0
LINE
  5
29b
100
AcDbEntity
  8
0
  6
DOT
 62
     7
370
    20
100
AcDbLine
 10
44.075000
 20
110.500000
 11
44.075000
 21
89.875000
  0
ELLIPSE
  5
29e
100
AcDbEntity
  8
0
  6
DOT
 62
     7
370
    20
100
AcDbEllipse
 10
41.550000
 20
94.000000
 30
0.000000
 11
2.525000
 21
-0.000000000000000
 31
0.000000
210
0.000000
220
0.000000
230
1.000000
 40
0.376238
 41
3.141593
 42
6.283185
  0
ELLIPSE
  5
2a1
100
AcDbEntity
  8
0
  6
DOT
 62
     7
370
    20
100
AcDbEllipse
 10
41.550000
 20
94.625000
 30
0.000000
 11
2.525000
 21
-0.000000000000000
 31
0.000000
210
0.000000
220
0.000000
230
1.000000
 40
0.376238
 41
3.141593
 42
6.283185
  0
ELLIPSE
  5
2a4
100
AcDbEntity
  8
0
  6
DOT
 62
     7
370
    20
100
AcDbEllipse
 10
41.550000
 20
106.375000
 30
0.000000
 11
2.525000
 21
-0.000000000000000
 31
0.000000
210
0.000000
220
0.000000
230
1.000000
 40
0.376238
 41
3.141593
 42
6.283185
  0
ELLIPSE
  5
2a7
100
AcDbEntity
  8
0
  6
DOT
 62
     7
370
    20
100
AcDbEllipse
 10
41.550000
 20
105.725000
 30
0.000000
 11
2.525000
 21
-0.000000000000000
 31
0.000000
210
0.000000
220
0.000000
230
1.000000
 40
0.376238
 41
3.141593
 42
6.283185
  0
LINE
  5
2aa
100
AcDbEntity
  8
0
  6
DOT
 62
     7
370
    20
100
AcDbLine
 10
39.000000
 20
110.500000
 11
39.000000
 21
105.725000
  0
LINE
  5
2ad
100
AcDbEntity
  8
0
  6
DOT
 62
     7
370
    20
100
AcDbLine
 10
39.000000
 20
94.625000
 11
39.000000
 21
89.875000
  0
LINE
  5
2b0
100
AcDbEntity
  8
0
  6
DOT
 62
     7
370
    20
100
AcDbLine
 10
41.875000
 20
104.775000
 11
41.875000
 21
93.675000
  0
LWPOLYLINE
  5
2b3
100
AcDbEntity
  8
0
  6
DOT
 62
     7
100
AcDbPolyline
 90
     7
 70
     0
 43
0.200000
 10
38.700000
 20
105.425000
 10
38.050000
 20
104.150000
 10
37.750000
 20
102.875000
 10
37.425000
 20
100.975000
 10
37.425000
 20
98.750000
 10
38.050000
 20
96.525000
 10
39.000000
 20
94.625000
  0
ELLIPSE
  5
2c4
100
AcDbEntity
  8
0
  6
DOT
 62
     7
370
    20
100
AcDbEllipse
 10
41.550000
 20
159.350000
 30
0.000000
 11
2.525000
 21
-0.000000000000000
 31
0.000000
210
0.000000
220
0.000000
230
1.000000
 40
0.376238
 41
0.000000
 42
6.283185
  0
ELLIPSE
  5
2c7
100
AcDbEntity
  8
0
  6
DOT
 62
     7
370
    20
100
AcDbEllipse
 10
41.550000
 20
138.725000
 30
0.000000
 11
2.525000
 21
-0.000000000000000
 31
0.000000
210
0.000000
220
0.000000
230
1.000000
 40
0.376238
 41
3.141593
 42
6.283185
  0
LINE
  5
2ca
100
AcDbEntity
  8
0
  6
DOT
 62
     7
370
    20
100
AcDbLine
 10
44.075000
 20
159.350000
 11
44.075000
 21
138.725000
  0
ELLIPSE
  5
2cd
100
AcDbEntity
  8
0
  6
DOT
 62
     7
370
    20
100
AcDbEllipse
 10
41.550000
 20
142.850000
 30
0.000000
 11
2.525000
 21
-0.000000000000000
 31
0.000000
210
0.000000
220
0.000000
230
1.000000
 40
0.376238
 41
3.141593
 42
6.283185
  0
ELLIPSE
  5
2d0
100
AcDbEntity
  8
0
  6
DOT
 62
     7
370
    20
100
AcDbEllipse
 10
41.550000
 20
143.475000
 30
0.000000
 11
2.525000
 21
-0.000000000000000
 31
0.000000
210
0.000000
220
0.000000
230
1.000000
 40
0.376238
 41
3.141593
 42
6.283185
  0
ELLIPSE
  5
2d3
100
AcDbEntity
  8
0
  6
DOT
 62
     7
370
    20
100
AcDbEllipse
 10
41.550000
 20
155.225000
 30
0.000000
 11
2.525000
 21
-0.000000000000000
 31
0.000000
210
0.000000
220
0.000000
230
1.000000
 40
0.376238
 41
3.141593
 42
6.283185
  0
ELLIPSE
  5
2d6
100
AcDbEntity
  8
0
  6
DOT
 62
     7
370
    20
100
AcDbEllipse
 10
41.550000
 20
154.600000
 30
0.000000
 11
2.525000
 21
-0.000000000000000
 31
0.000000
210
0.000000
220
0.000000
230
1.000000
 40
0.376238
 41
3.141593
 42
6.283185
  0
LINE
  5
2d9
100
AcDbEntity
  8
0
  6
DOT
 62
     7
370
    20
100
AcDbLine
 10
39.000000
 20
159.350000
 11
39.000000
 21
154.600000
  0
LINE
  5
2dc
100
AcDbEntity
  8
0
  6
DOT
 62
     7
370
    20
100
AcDbLine
 10
39.000000
 20
143.475000
 11
39.000000
 21
138.725000
  0
LINE
  5
2df
100
AcDbEntity
  8
0
  6
DOT
 62
     7
370
    20
100
AcDbLine
 10
41.875000
 20
153.650000
 11
41.875000
 21
142.525000
  0
LWPOLYLINE
  5
2e2
100
AcDbEntity
  8
0
  6
DOT
 62
     7
100
AcDbPolyline
 90
     7
 70
     0
 43
0.200000
 10
38.700000
 20
154.275000
 10
38.050000
 20
153.000000
 10
37.750000
 20
151.725000
 10
37.425000
 20
149.825000
 10
37.425000
 20
147.600000
 10
38.050000
 20
145.400000
 10
39.000000
 20
143.475000
  0
LINE
  5
2f3
100
AcDbEntity
  8
0
370
    40
100
AcDbLine
 10
40.275000
 20
87.975000
 11
40.275000
 21
70.200000
  0
LINE
  5
2f6
100
AcDbEntity
  8
0
370
    40
100
AcDbLine
 10
42.175000
 20
70.200000
 11
42.175000
 21
87.975000
  0
LINE
  5
2f9
100
AcDbEntity
  8
0
370
    40
100
AcDbLine
 10
40.275000
 20
161.975000
 11
40.275000
 21
188.575000
  0
LINE
  5
2fc
100
AcDbEntity
  8
0
370
    40
100
AcDbLine
 10
42.175000
 20
161.250000
 11
42.175000
 21
188.850000
  0
LINE
  5
2ff
100
AcDbEntity
  8
0
370
    20
100
AcDbLine
 10
30.750000
 20
125.400000
 11
32.975000
 21
126.350000
  0
LINE
  5
302
100
AcDbEntity
  8
0
370
    20
100
AcDbLine
 10
32.975000
 20
126.350000
 11
34.875000
 21
125.400000
  0
LINE
  5
305
100
AcDbEntity
  8
0
370
    20
100
AcDbLine
 10
34.875000
 20
125.400000
 11
37.100000
 21
126.350000
  0
LINE
  5
308
100
AcDbEntity
  8
0
370
    20
100
AcDbLine
 10
37.100000
 20
126.350000
 11
39.000000
 21
125.400000
  0
LINE
  5
30b
100
AcDbEntity
  8
0
370
    20
100
AcDbLine
 10
39.000000
 20
125.400000
 11
40.925000
 21
126.350000
  0
LINE
  5
30e
100
AcDbEntity
  8
0
370
    20
100
AcDbLine
 10
40.925000
 20
126.350000
 11
43.125000
 21
125.400000
  0
LINE
  5
311
100
AcDbEntity
  8
0
370
    20
100
AcDbLine
 10
43.125000
 20
125.400000
 11
45.025000
 21
126.350000
  0
LINE
  5
314
100
AcDbEntity
  8
0
370
    20
100
AcDbLine
 10
45.025000
 20
126.350000
 11
47.250000
 21
125.400000
  0
LINE
  5
317
100
AcDbEntity
  8
0
370
    20
100
AcDbLine
 10
47.250000
 20
125.400000
 11
49.150000
 21
126.350000
  0
LINE
  5
31a
100
AcDbEntity
  8
0
370
    20
100
AcDbLine
 10
30.750000
 20
123.825000
 11
32.975000
 21
124.775000
  0
LINE
  5
31d
100
AcDbEntity
  8
0
370
    20
100
AcDbLine
 10
32.975000
 20
124.775000
 11
34.875000
 21
123.825000
  0
LINE
  5
320
100
AcDbEntity
  8
0
370
    20
100
AcDbLine
 10
34.875000
 20
123.825000
 11
37.100000
 21
124.775000
  0
LINE
  5
323
100
AcDbEntity
  8
0
370
    20
100
AcDbLine
 10
37.100000
 20
124.775000
 11
39.000000
 21
123.825000
  0
LINE
  5
326
100
AcDbEntity
  8
0
370
    20
100
AcDbLine
 10
39.000000
 20
123.825000
 11
40.925000
 21
124.775000
  0
LINE
  5
329
100
AcDbEntity
  8
0
370
    20
100
AcDbLine
 10
40.925000
 20
124.775000
 11
43.125000
 21
123.825000
  0
LINE
  5
32c
100
AcDbEntity
  8
0
370
    20
100
AcDbLine
 10
43.125000
 20
123.825000
 11
45.025000
 21
124.775000
  0
LINE
  5
32f
100
AcDbEntity
  8
0
370
    20
100
AcDbLine
 10
45.025000
 20
124.775000
 11
47.250000
 21
123.825000
  0
LINE
  5
332
100
AcDbEntity
  8
0
370
    20
100
AcDbLine
 10
47.250000
 20
123.825000
 11
49.150000
 21
124.775000
  0
LINE
  5
335
100
AcDbEntity
  8
0
370
    40
100
AcDbLine
 10
35.525000
 20
166.325000
 11
35.525000
 21
125.725000
  0
LINE
  5
338
100
AcDbEntity
  8
0
370
    40
100
AcDbLine
 10
35.525000
 20
124.125000
 11
35.525000
 21
39.425000
  0
LINE
  5
33b
100
AcDbEntity
  8
0
370
    40
100
AcDbLine
 10
40.275000
 20
136.825000
 11
40.275000
 21
126.050000
  0
LINE
  5
33e
100
AcDbEntity
  8
0
370
    40
100
AcDbLine
 10
40.275000
 20
124.450000
 11
40.275000
 21
112.400000
  0
LINE
  5
341
100
AcDbEntity
  8
0
370
    40
100
AcDbLine
 10
42.175000
 20
136.825000
 11
42.175000
 21
126.050000
  0
LINE
  5
344
100
AcDbEntity
  8
0
370
    40
100
AcDbLine
 10
42.175000
 20
124.450000
 11
42.175000
 21
112.400000
  0
LINE
  5
347
100
AcDbEntity
  8
0
370
    40
100
AcDbLine
 10
45.675000
 20
171.400000
 11
45.675000
 21
126.350000
  0
LINE
  5
34a
100
AcDbEntity
  8
0
370
    40
100
AcDbLine
 10
45.675000
 20
124.775000
 11
45.675000
 21
39.425000
  0
LINE
  5
34d
100
AcDbEntity
  8
0
  6
DOT
 62
     7
370
    40
100
AcDbLine
 10
40.275000
 20
112.400000
 11
40.275000
 21
87.975000
  0
LINE
  5
350
100
AcDbEntity
  8
0
  6
DOT
 62
     7
370
    40
100
AcDbLine
 10
42.175000
 20
87.975000
 11
42.175000
 21
112.400000
  0
LINE
  5
353
100
AcDbEntity
  8
0
  6
DOT
 62
     7
370
    40
100
AcDbLine
 10
40.275000
 20
161.250000
 11
40.275000
 21
136.825000
  0
LINE
  5
356
100
AcDbEntity
  8
0
  6
DOT
 62
     7
370
    40
100
AcDbLine
 10
42.175000
 20
136.825000
 11
42.175000
 21
161.250000
  0
LINE
  5
359
100
AcDbEntity
  8
0
370
    20
100
AcDbLine
 10
44.800000
 20
149.350000
 11
58.625000
 21
149.300000
  0
LINE
  5
35c
100
AcDbEntity
  8
0
370
    20
100
AcDbLine
 10
45.300000
 20
100.075000
 11
59.025000
 21
100.150000
  0
LINE
  5
35f
100
AcDbEntity
  8
0
370
    20
100
AcDbLine
 10
44.775000
 20
58.675000
 11
59.125000
 21
58.850000
  0
LINE
  5
362
100
AcDbEntity
  8
0
370
    20
100
AcDbLine
 10
55.975000
 20
148.975000
 11
55.975000
 21
100.450000
  0
LWPOLYLINE
  5
365
100
AcDbEntity
  8
0
100
AcDbPolyline
 90
     3
 70
     0
 43
0.200000
 10
57.550000
 20
146.450000
 10
55.975000
 20
148.975000
 10
54.400000
 20
146.450000
  0
LWPOLYLINE
  5
36e
100
AcDbEntity
  8
0
100
AcDbPolyline
 90
     3
 70
     0
 43
0.200000
 10
54.400000
 20
102.975000
 10
55.975000
 20
100.450000
 10
57.550000
 20
102.975000
  0
LINE
  5
377
100
AcDbEntity
  8
0
370
    20
100
AcDbLine
 10
55.975000
 20
100.125000
 11
55.975000
 21
58.525000
  0
LWPOLYLINE
  5
37a
100
AcDbEntity
  8
0
100
AcDbPolyline
 90
     3
 70
     0
 43
0.200000
 10
57.550000
 20
97.600000
 10
55.975000
 20
100.125000
 10
54.400000
 20
97.600000
  0
LWPOLYLINE
  5
383
100
AcDbEntity
  8
0
100
AcDbPolyline
 90
     3
 70
     0
 43
0.200000
 10
54.150000
 20
60.775000
 10
55.725000
 20
58.250000
 10
57.300000
 20
60.775000
  0
MTEXT
  5
38c
100
AcDbEntity
  8
0
100
AcDbMText
 10
-237.375000
 20
-140.250000
 40
2.475000
 41
8.910000
 71
     1
 72
     5
  1
\fＭＳ ゴシック|b0|i0|c128|p49;\T1.0200;１ｍ
 44
0.981818
 73
     1
  7
BIGFONT
  0
MTEXT
  5
38f
100
AcDbEntity
  8
0
100
AcDbMText
 10
-312.075000
 20
-246.050000
 40
2.475000
 41
17.820000
 71
     1
 72
     5
  1
\fＭＳ ゴシック|b0|i0|c128|p49;\T1.0200;１ｍ×ｎ
 44
0.981818
 73
     1
  7
BIGFONT
  0
MTEXT
  5
392
100
AcDbEntity
  8
0
100
AcDbMText
 10
22.300000
 20
110.650000
 40
1.856250
 41
35.640000
 71
     1
 72
     5
  1
\f@ＭＳ ゴシック|b0|i0|c128|p49;\T1.8854;１ｍ毎に引き揚げ
 44
1.226497
 73
     1
 11
-0.000000000000000
 21
-1.000000
 31
0.000000
  7
BIGFONT
  0
LINE
  5
395
100
AcDbEntity
  8
0
370
    40
100
AcDbLine
 10
28.850000
 20
116.525000
 11
28.850000
 21
128.900000
  0
LWPOLYLINE
  5
398
100
AcDbEntity
  8
0
100
AcDbPolyline
 90
     3
 70
     0
 43
0.400000
 10
30.450000
 20
126.350000
 10
28.850000
 20
128.900000
 10
27.275000
 20
126.350000
  0
LINE
  5
3a1
100
AcDbEntity
  8
0
370
    40
100
AcDbLine
 10
29.175000
 20
68.925000
 11
29.175000
 21
81.300000
  0
LWPOLYLINE
  5
3a4
100
AcDbEntity
  8
0
100
AcDbPolyline
 90
     3
 70
     0
 43
0.400000
 10
30.750000
 20
78.775000
 10
29.175000
 20
81.300000
 10
27.600000
 20
78.775000
  0
MTEXT
  5
3ad
100
AcDbEntity
  8
0
100
AcDbMText
 10
10.000000
 20
187.025000
 40
1.856250
 41
17.820000
 71
     1
 72
     5
  1
\fＭＳ ゴシック|b0|i0|c128|p49;\T1.8854;加圧装置
 44
1.226497
 73
     1
  7
BIGFONT
  0
MTEXT
  5
3b0
100
AcDbEntity
  8
0
100
AcDbMText
 10
14.425000
 20
171.500000
 40
1.856250
 41
24.502500
 71
     1
 72
     5
  1
\fＭＳ ゴシック|b0|i0|c128|p49;\T1.8854;圧着用エアホース
 44
1.226497
 73
     1
  7
BIGFONT
  0
MTEXT
  5
3b3
100
AcDbEntity
  8
0
100
AcDbMText
 10
48.075000
 20
161.050000
 40
1.856250
 41
24.502500
 71
     1
 72
     5
  1
\fＭＳ ゴシック|b0|i0|c128|p49;\T1.8854;地震計ケーフ　ル
 44
1.226497
 73
     1
  7
BIGFONT
  0
MTEXT
  5
3b6
100
AcDbEntity
  8
0
100
AcDbMText
 10
8.725000
 20
206.725000
 40
1.856250
 41
28.957500
 71
     1
 72
     5
  1
\fＭＳ ゴシック|b0|i0|c128|p49;\T1.8854;増幅器・記録器
 44
1.226497
 73
     1
  7
BIGFONT
  0
MTEXT
  5
3b9
100
AcDbEntity
  8
0
100
AcDbMText
 10
29.675000
 20
201.650000
 40
1.856250
 41
26.730000
 71
     1
 72
     5
  1
\fＭＳ ゴシック|b0|i0|c128|p49;\T1.8854;トリカ　ー用ケーフ　ル
 44
1.226497
 73
     1
  7
BIGFONT
  0
MTEXT
  5
3bc
100
AcDbEntity
  8
0
100
AcDbMText
 10
59.800000
 20
200.050000
 40
1.856250
 41
26.730000
 71
     1
 72
     5
  1
\fＭＳ ゴシック|b0|i0|c128|p49;\T1.8854;Ｓ波反転起振
 44
1.226497
 73
     1
  7
BIGFONT
  0
MTEXT
  5
3bf
100
AcDbEntity
  8
0
100
AcDbMText
 10
51.875000
 20
170.550000
 40
1.856250
 41
33.412500
 71
     1
 72
     5
  1
\fＭＳ ゴシック|b0|i0|c128|p49;\T1.8854;Ｐ波起振(カケヤ打)
 44
1.226497
 73
     1
  7
BIGFONT
  0
MTEXT
  5
3c2
100
AcDbEntity
  8
0
100
AcDbMText
 10
82.850000
 20
165.775000
 40
1.856250
 41
26.730000
 71
     1
 72
     5
  1
\f@ＭＳ ゴシック|b0|i0|c128|p49;\T1.8854;Ｓ波反転起振
 44
1.226497
 73
     1
 11
-0.000000000000000
 21
-1.000000
 31
0.000000
  7
BIGFONT
  0
LWPOLYLINE
  5
3c5
100
AcDbEntity
  8
0
100
AcDbPolyline
 90
     3
 70
     0
 43
0.200000
 10
60.900000
 20
196.475000
 10
60.275000
 20
193.600000
 10
61.525000
 20
194.875000
  0
LWPOLYLINE
  5
3ce
100
AcDbEntity
  8
0
100
AcDbPolyline
 90
     3
 70
     0
 43
0.200000
 10
81.200000
 20
170.125000
 10
80.575000
 20
175.200000
 10
80.250000
 20
172.350000
  0
LWPOLYLINE
  5
3d7
100
AcDbEntity
  8
0
100
AcDbPolyline
 90
     3
 70
     0
 43
0.200000
 10
53.275000
 20
171.725000
 10
55.200000
 20
187.275000
 10
53.925000
 20
184.100000
  0
LWPOLYLINE
  5
3e0
100
AcDbEntity
  8
0
100
AcDbPolyline
 90
     3
 70
     0
 43
0.200000
 10
28.550000
 20
200.600000
 10
26.000000
 20
197.425000
 10
26.625000
 20
199.000000
  0
LWPOLYLINE
  5
3e9
100
AcDbEntity
  8
0
100
AcDbPolyline
 90
     3
 70
     0
 43
0.200000
 10
34.250000
 20
169.500000
 10
40.275000
 20
169.500000
 10
37.425000
 20
170.125000
  0
LWPOLYLINE
  5
3f2
100
AcDbEntity
  8
0
100
AcDbPolyline
 90
     3
 70
     0
 43
0.200000
 10
46.950000
 20
159.675000
 10
42.175000
 20
165.375000
 10
44.075000
 20
164.425000
  0
LWPOLYLINE
  5
3fb
100
AcDbEntity
  8
0
100
AcDbPolyline
 90
     3
 70
     0
 43
0.200000
 10
22.200000
 20
111.125000
 10
28.550000
 20
120.000000
 10
26.000000
 20
118.100000
  0
LWPOLYLINE
  5
404
100
AcDbEntity
  8
0
100
AcDbPolyline
 90
     3
 70
     0
 43
0.200000
 10
21.875000
 20
83.525000
 10
28.850000
 20
74.325000
 10
26.325000
 20
76.225000
  0
LINE
  5
40d
100
AcDbEntity
  8
0
370
    20
100
AcDbLine
 10
47.275000
 20
181.600000
 11
46.125000
 21
180.475000
  0
LINE
  5
410
100
AcDbEntity
  8
0
370
    20
100
AcDbLine
 10
48.150000
 20
181.575000
 11
47.025000
 21
180.475000
  0
LINE
  5
413
100
AcDbEntity
  8
0
370
    20
100
AcDbLine
 10
49.725000
 20
181.325000
 11
48.600000
 21
180.225000
  0
LINE
  5
416
100
AcDbEntity
  8
0
370
    20
100
AcDbLine
 10
50.400000
 20
181.100000
 11
49.275000
 21
180.000000
  0
LINE
  5
419
100
AcDbEntity
  8
0
370
    20
100
AcDbLine
 10
47.700000
 20
181.150000
 11
48.825000
 21
180.450000
  0
LINE
  5
41c
100
AcDbEntity
  8
0
370
    20
100
AcDbLine
 10
50.175000
 20
180.875000
 11
51.275000
 21
180.200000
  0
LINE
  5
41f
100
AcDbEntity
  8
0
370
    20
100
AcDbLine
 10
52.425000
 20
181.275000
 11
51.275000
 21
180.200000
  0
LINE
  5
422
100
AcDbEntity
  8
0
370
    20
100
AcDbLine
 10
53.325000
 20
181.300000
 11
52.175000
 21
180.175000
  0
LINE
  5
425
100
AcDbEntity
  8
0
370
    20
100
AcDbLine
 10
52.850000
 20
180.825000
 11
53.975000
 21
180.150000
  0
LINE
  5
428
100
AcDbEntity
  8
0
370
    20
100
AcDbLine
 10
89.575000
 20
180.975000
 11
88.700000
 21
179.925000
  0
LINE
  5
42b
100
AcDbEntity
  8
0
370
    20
100
AcDbLine
 10
90.850000
 20
181.325000
 11
89.975000
 21
180.000000
  0
LINE
  5
42e
100
AcDbEntity
  8
0
370
    20
100
AcDbLine
 10
92.450000
 20
181.350000
 11
91.575000
 21
180.050000
  0
LINE
  5
431
100
AcDbEntity
  8
0
370
    20
100
AcDbLine
 10
93.125000
 20
181.300000
 11
92.275000
 21
179.975000
  0
LINE
  5
434
100
AcDbEntity
  8
0
370
    20
100
AcDbLine
 10
90.475000
 20
180.800000
 11
91.750000
 21
180.325000
  0
LINE
  5
437
100
AcDbEntity
  8
0
370
    20
100
AcDbLine
 10
92.975000
 20
181.025000
 11
94.200000
 21
180.575000
  0
LINE
  5
43a
100
AcDbEntity
  8
0
370
    20
100
AcDbLine
 10
94.750000
 20
181.350000
 11
93.850000
 21
180.050000
  0
LINE
  5
43d
100
AcDbEntity
  8
0
370
    20
100
AcDbLine
 10
95.625000
 20
181.550000
 11
94.700000
 21
180.200000
  0
LINE
  5
440
100
AcDbEntity
  8
0
370
    20
100
AcDbLine
 10
97.200000
 20
181.575000
 11
96.325000
 21
180.300000
  0
LINE
  5
443
100
AcDbEntity
  8
0
370
    20
100
AcDbLine
 10
95.275000
 20
180.975000
 11
96.475000
 21
180.525000
  0
LINE
  5
446
100
AcDbEntity
  8
0
370
    20
100
AcDbLine
 10
60.575000
 20
181.550000
 11
59.325000
 21
180.275000
  0
LINE
  5
449
100
AcDbEntity
  8
0
370
    20
100
AcDbLine
 10
61.525000
 20
181.550000
 11
60.275000
 21
180.275000
  0
LINE
  5
44c
100
AcDbEntity
  8
0
370
    20
100
AcDbLine
 10
63.450000
 20
181.550000
 11
62.175000
 21
180.275000
  0
LINE
  5
44f
100
AcDbEntity
  8
0
370
    20
100
AcDbLine
 10
61.225000
 20
181.550000
 11
62.175000
 21
180.600000
  0
LINE
  5
452
100
AcDbEntity
  8
0
370
    20
100
AcDbLine
 10
82.675000
 20
181.125000
 11
82.375000
 21
180.375000
  0
LINE
  5
455
100
AcDbEntity
  8
0
370
    20
100
AcDbLine
 10
83.675000
 20
181.250000
 11
82.675000
 21
179.650000
  0
LINE
  5
458
100
AcDbEntity
  8
0
370
    20
100
AcDbLine
 10
85.225000
 20
180.975000
 11
84.250000
 21
179.375000
  0
LINE
  5
45b
100
AcDbEntity
  8
0
370
    20
100
AcDbLine
 10
86.250000
 20
181.100000
 11
85.225000
 21
179.575000
  0
LINE
  5
45e
100
AcDbEntity
  8
0
370
    20
100
AcDbLine
 10
87.925000
 20
181.250000
 11
86.925000
 21
179.725000
  0
LINE
  5
461
100
AcDbEntity
  8
0
370
    20
100
AcDbLine
 10
85.775000
 20
180.525000
 11
87.075000
 21
180.125000
  0
LINE
  5
464
100
AcDbEntity
  8
0
370
    20
100
AcDbLine
 10
88.100000
 20
180.950000
 11
88.625000
 21
180.575000
  0
LINE
  5
467
100
AcDbEntity
  8
0
370
    20
100
AcDbLine
 10
83.550000
 20
180.825000
 11
84.525000
 21
180.250000
  0
ELLIPSE
  5
46a
100
AcDbEntity
  8
0
370
    40
100
AcDbEllipse
 10
40.600000
 20
183.150000
 30
0.000000
 11
5.075000
 21
-0.00000000000000
 31
0.000000
210
0.000000
220
0.000000
230
1.000000
 40
0.497537
 41
1.742602
 42
3.141593
  0
ELLIPSE
  5
46d
100
AcDbEntity
  8
0
370
    40
100
AcDbEllipse
 10
40.600000
 20
183.150000
 30
0.000000
 11
5.075000
 21
-0.00000000000000
 31
0.000000
210
0.000000
220
0.000000
230
1.000000
 40
0.497537
 41
0.000000
 42
1.135146
  0
LINE
  5
470
100
AcDbEntity
  8
0
370
    40
100
AcDbLine
 10
40.925000
 20
185.675000
 11
41.550000
 21
185.675000
  0
LINE
  5
473
100
AcDbEntity
  8
0
370
    40
100
AcDbLine
 10
8.875000
 20
181.425000
 11
34.950000
 21
181.475000
  0
LINE
  5
476
100
AcDbEntity
  8
0
370
    20
100
AcDbLine
 10
10.825000
 20
181.225000
 11
9.850000
 21
180.025000
  0
LINE
  5
479
100
AcDbEntity
  8
0
370
    20
100
AcDbLine
 10
11.500000
 20
181.125000
 11
10.525000
 21
179.850000
  0
LINE
  5
47c
100
AcDbEntity
  8
0
370
    20
100
AcDbLine
 10
8.825000
 20
180.800000
 11
10.025000
 21
180.250000
  0
LINE
  5
47f
100
AcDbEntity
  8
0
370
    20
100
AcDbLine
 10
11.300000
 20
180.875000
 11
12.525000
 21
180.300000
  0
LINE
  5
482
100
AcDbEntity
  8
0
370
    20
100
AcDbLine
 10
13.275000
 20
181.300000
 11
12.300000
 21
180.050000
  0
LINE
  5
485
100
AcDbEntity
  8
0
370
    20
100
AcDbLine
 10
14.200000
 20
181.400000
 11
13.200000
 21
180.150000
  0
LINE
  5
488
100
AcDbEntity
  8
0
370
    20
100
AcDbLine
 10
15.775000
 20
181.350000
 11
14.775000
 21
180.100000
  0
LINE
  5
48b
100
AcDbEntity
  8
0
370
    20
100
AcDbLine
 10
16.475000
 20
181.200000
 11
15.475000
 21
179.950000
  0
LINE
  5
48e
100
AcDbEntity
  8
0
370
    20
100
AcDbLine
 10
13.775000
 20
180.875000
 11
14.975000
 21
180.375000
  0
LINE
  5
491
100
AcDbEntity
  8
0
370
    20
100
AcDbLine
 10
16.275000
 20
180.950000
 11
17.475000
 21
180.425000
  0
LINE
  5
494
100
AcDbEntity
  8
0
370
    20
100
AcDbLine
 10
18.050000
 20
181.175000
 11
17.050000
 21
179.925000
  0
LINE
  5
497
100
AcDbEntity
  8
0
370
    20
100
AcDbLine
 10
18.950000
 20
181.250000
 11
17.975000
 21
180.025000
  0
LINE
  5
49a
100
AcDbEntity
  8
0
370
    20
100
AcDbLine
 10
20.525000
 20
181.175000
 11
19.550000
 21
179.975000
  0
LINE
  5
49d
100
AcDbEntity
  8
0
370
    20
100
AcDbLine
 10
21.225000
 20
181.075000
 11
20.225000
 21
179.800000
  0
LINE
  5
4a0
100
AcDbEntity
  8
0
370
    20
100
AcDbLine
 10
18.550000
 20
180.750000
 11
19.750000
 21
180.200000
  0
LINE
  5
4a3
100
AcDbEntity
  8
0
370
    20
100
AcDbLine
 10
21.025000
 20
180.825000
 11
22.225000
 21
180.250000
  0
LINE
  5
4a6
100
AcDbEntity
  8
0
370
    20
100
AcDbLine
 10
22.800000
 20
181.025000
 11
21.825000
 21
179.750000
  0
LINE
  5
4a9
100
AcDbEntity
  8
0
370
    20
100
AcDbLine
 10
23.700000
 20
181.100000
 11
22.725000
 21
179.875000
  0
LINE
  5
4ac
100
AcDbEntity
  8
0
370
    20
100
AcDbLine
 10
25.275000
 20
181.050000
 11
24.300000
 21
179.800000
  0
LINE
  5
4af
100
AcDbEntity
  8
0
370
    20
100
AcDbLine
 10
25.975000
 20
180.900000
 11
25.000000
 21
179.700000
  0
LINE
  5
4b2
100
AcDbEntity
  8
0
370
    20
100
AcDbLine
 10
23.300000
 20
180.625000
 11
24.500000
 21
180.100000
  0
LINE
  5
4b5
100
AcDbEntity
  8
0
370
    20
100
AcDbLine
 10
25.750000
 20
180.650000
 11
26.975000
 21
180.125000
  0
LINE
  5
4b8
100
AcDbEntity
  8
0
370
    20
100
AcDbLine
 10
27.500000
 20
181.325000
 11
26.525000
 21
180.075000
  0
LINE
  5
4bb
100
AcDbEntity
  8
0
370
    20
100
AcDbLine
 10
28.275000
 20
181.325000
 11
27.300000
 21
180.075000
  0
LINE
  5
4be
100
AcDbEntity
  8
0
370
    20
100
AcDbLine
 10
30.000000
 20
181.350000
 11
29.025000
 21
180.125000
  0
LINE
  5
4c1
100
AcDbEntity
  8
0
370
    20
100
AcDbLine
 10
30.675000
 20
181.225000
 11
29.700000
 21
179.950000
  0
LINE
  5
4c4
100
AcDbEntity
  8
0
370
    20
100
AcDbLine
 10
28.025000
 20
180.900000
 11
29.225000
 21
180.350000
  0
LINE
  5
4c7
100
AcDbEntity
  8
0
370
    20
100
AcDbLine
 10
30.475000
 20
180.975000
 11
31.700000
 21
180.425000
  0
LINE
  5
4ca
100
AcDbEntity
  8
0
370
    20
100
AcDbLine
 10
32.275000
 20
181.175000
 11
31.300000
 21
179.925000
  0
LINE
  5
4cd
100
AcDbEntity
  8
0
370
    20
100
AcDbLine
 10
33.150000
 20
181.250000
 11
32.175000
 21
180.050000
  0
LINE
  5
4d0
100
AcDbEntity
  8
0
370
    20
100
AcDbLine
 10
32.750000
 20
180.775000
 11
33.975000
 21
180.225000
  0
MTEXT
  5
4d3
100
AcDbEntity
  8
0
100
AcDbMText
 10
59.950000
 20
86.475000
 40
1.856250
 41
17.820000
 71
     1
 72
     5
  1
\f@ＭＳ ゴシック|b0|i0|c128|p49;\T1.2282;測定間隔
 44
1.597188
 73
     1
 11
-0.000000000000000
 21
-1.000000
 31
0.000000
  7
BIGFONT
  0
ENDSEC
  0
SECTION
  2
OBJECTS
  0
DICTIONARY
  5
4de
100
AcDbDictionary
281
     1
  3
ACAD_COLOR
350
4df
  3
ACAD_GROUP
350
4e0
  3
ACAD_LAYOUT
350
4e1
  3
ACAD_MATERIAL
350
4e2
  3
ACAD_MLINESTYLE
350
4e3
  3
CONTENTDICTIONARY
350
4e9
  0
DICTIONARY
  5
4df
102
{ACAD_REACTORS
330
4de
102
}
330
4de
100
AcDbDictionary
281
     1
  0
DICTIONARY
  5
4e0
102
{ACAD_REACTORS
330
4de
102
}
330
4de
100
AcDbDictionary
281
     1
  3
Layout1
350
4ea
  3
Layout2
350
4eb
  3
Model
350
52e
  0
DICTIONARY
  5
4e1
102
{ACAD_REACTORS
330
4de
102
}
330
4de
100
AcDbDictionary
281
     1
  0
DICTIONARY
  5
4e2
102
{ACAD_REACTORS
330
4de
102
}
330
4de
100
AcDbDictionary
281
     1
  0
DICTIONARY
  5
4e3
102
{ACAD_REACTORS
330
4de
102
}
330
4de
100
AcDbDictionary
281
     1
  3
Standard
350
4ec
  0
DICTIONARY
  5
4e4
102
{ACAD_REACTORS
330
4de
102
}
330
4de
100
AcDbDictionary
281
     1
  0
ACDBDICTIONARYWDFLT
  5
4e5
102
{ACAD_REACTORS
330
4de
102
}
330
4de
100
AcDbDictionary
281
     1
  3
Normal
350
52f
100
AcDbDictionaryWithDefault
340
52f
  0
DICTIONARY
  5
4e6
102
{ACAD_REACTORS
330
4de
102
}
330
4de
100
AcDbDictionary
281
     1
  3
Standard
350
530
  0
DICTIONARY
  5
4e7
102
{ACAD_REACTORS
330
4de
102
}
330
4de
100
AcDbDictionary
281
     1
  3
CEPSNTYPE
350
4ee
  3
FINGERPRINTGUID
350
4ef
  3
HYPERLINKBASE
350
4f0
  3
INSUNITS
350
4f1
  3
LAYOUTDICT
350
4f2
  3
LWETCUNION
350
4f3
  3
PLOTSETDICT
350
4f4
  3
PLOTSTYLNAMDICT
350
4f5
  3
PSVPSCALE
350
4f6
  3
PUCSBASE
350
4f7
  3
PUCSORGBACK
350
4f8
  3
PUCSORGBOTTOM
350
4f9
  3
PUCSORGFRONT
350
4fa
  3
PUCSORGLEFT
350
4fb
  3
PUCSORGRIGHT
350
4fc
  3
PUCSORGTOP
350
4fd
  3
PUCSORTHOREF
350
4fe
  3
PUCSORTHOVIEW
350
4ff
  3
STYLESHEET
350
500
  3
TSTACKALIGN
350
501
  3
TSTACKSIZE
350
502
  3
UCSBASE
350
503
  3
UCSORGBACK
350
504
  3
UCSORGBOTTOM
350
505
  3
UCSORGFRONT
350
506
  3
UCSORGLEFT
350
507
  3
UCSORGRIGHT
350
508
  3
UCSORGTOP
350
509
  3
UCSORTHOREF
350
50a
  3
UCSORTHOVIEW
350
50b
  3
VERSIONGUID
350
50c
  0
DICTIONARY
  5
4e8
102
{ACAD_REACTORS
330
4de
102
}
330
4de
100
AcDbDictionary
281
     1
  3
CTABLESTYLE
350
50d
  3
DIMASSOC
350
50e
  3
HIDETEXT
350
50f
  3
PROJECTNAME
350
510
  0
LAYOUT
  5
4e9
102
{ACAD_XDICTIONARY
360
7f4
102
}
102
{ACAD_REACTORS
330
4df
102
}
330
4df
100
AcDbPlotSettings
  1

  2

  4

  6

 40
0.000000
 41
0.000000
 42
0.000000
 43
0.000000
 44
0.000000
 45
0.000000
 46
0.000000
 47
0.000000
 48
0.000000
 49
0.000000
140
0.000000
141
0.000000
142
1.000000
143
1.000000
 70
   688
 72
     0
 73
     0
 74
     5
  7

 75
    16
147
1.000000
148
0.000000
149
0.000000
100
AcDbLayout
  1
Layout1
 70
     1
 71
     1
 10
0.000000
 20
0.000000
 11
140.000000
 21
212.000000
 12
0.000000
 22
0.000000
 32
0.000000
 14
100000000000000000000.000000
 24
100000000000000000000.000000
 34
100000000000000000000.000000
 15
-100000000000000000000.000000
 25
-100000000000000000000.000000
 35
-100000000000000000000.000000
146
0.000000
 13
0.000000
 23
0.000000
 33
0.000000
 16
1.000000
 26
0.000000
 36
0.000000
 17
0.000000
 27
1.000000
 37
0.000000
 76
     0
330
4e3
  0
LAYOUT
  5
4ea
102
{ACAD_XDICTIONARY
360
7f6
102
}
102
{ACAD_REACTORS
330
4df
102
}
330
4df
100
AcDbPlotSettings
  1

  2

  4

  6

 40
0.000000
 41
0.000000
 42
0.000000
 43
0.000000
 44
0.000000
 45
0.000000
 46
0.000000
 47
0.000000
 48
0.000000
 49
0.000000
140
0.000000
141
0.000000
142
1.000000
143
1.000000
 70
   688
 72
     0
 73
     0
 74
     5
  7

 75
    16
147
1.000000
148
0.000000
149
0.000000
100
AcDbLayout
  1
Layout2
 70
     1
 71
     2
 10
0.000000
 20
0.000000
 11
140.000000
 21
212.000000
 12
0.000000
 22
0.000000
 32
0.000000
 14
0.000000
 24
0.000000
 34
0.000000
 15
0.000000
 25
0.000000
 35
0.000000
146
0.000000
 13
0.000000
 23
0.000000
 33
0.000000
 16
1.000000
 26
0.000000
 36
0.000000
 17
0.000000
 27
1.000000
 37
0.000000
 76
     0
330
4ea
  0
LAYOUT
  5
4eb
102
{ACAD_XDICTIONARY
360
7f8
102
}
102
{ACAD_REACTORS
330
4df
102
}
330
4df
100
AcDbPlotSettings
  1

  2

  4

  6

 40
0.000000
 41
0.000000
 42
0.000000
 43
0.000000
 44
0.000000
 45
0.000000
 46
0.000000
 47
0.000000
 48
0.000000
 49
0.000000
140
0.000000
141
0.000000
142
1.000000
143
1.000000
 70
  1712
 72
     0
 73
     0
 74
     0
  7

 75
    16
147
1.000000
148
0.000000
149
0.000000
100
AcDbLayout
  1
Model
 70
     1
 71
     0
 10
0.000000
 20
0.000000
 11
140.000000
 21
212.000000
 12
0.000000
 22
0.000000
 32
0.000000
 14
0.000000
 24
0.000000
 34
0.000000
 15
0.000000
 25
0.000000
 35
0.000000
146
0.000000
 13
0.000000
 23
0.000000
 33
0.000000
 16
1.000000
 26
0.000000
 36
0.000000
 17
0.000000
 27
1.000000
 37
0.000000
 76
     0
330
4eb
  0
MLINESTYLE
  5
4ec
102
{ACAD_REACTORS
330
4eb
102
}
330
4eb
100
AcDbMlineStyle
  2
STANDARD
 70
     0
  3
 
 62
   256
 51
90.000000
 52
90.000000
 71
     2
 49
0.500000
 62
   256
  6
BYLAYER
 49
-0.500000
 62
   256
  6
BYLAYER
  0
ACDBPLACEHOLDER
  5
4ed
102
{ACAD_REACTORS
330
4ec
102
}
330
4ec
  0
DICTIONARY
  5
7f4
100
AcDbDictionary
280
     1
281
     1
  3
ACAD_XREC_ROUNDTRIP
360
7f5
  0
DICTIONARY
  5
7f6
100
AcDbDictionary
280
     1
281
     1
  3
ACAD_XREC_ROUNDTRIP
360
7f7
  0
DICTIONARY
  5
7f8
100
AcDbDictionary
280
     1
281
     1
  3
ACAD_XREC_ROUNDTRIP
360
7f9
  0
XRECORD
  5
7f5
102
{ACAD_REACTORS
330
7f4
102
}
330
7f4
100
AcDbXrecord
280
     1
102
SHADEPLOT
 70
     0
102
SHADEPLOTRESLEVEL
 70
     2
102
SHADEPLOTCUSTOMDPI
 70
   300
  0
XRECORD
  5
7f7
102
{ACAD_REACTORS
330
7f6
102
}
330
7f6
100
AcDbXrecord
280
     1
102
SHADEPLOT
 70
     0
102
SHADEPLOTRESLEVEL
 70
     2
102
SHADEPLOTCUSTOMDPI
 70
   300
  0
XRECORD
  5
7f9
102
{ACAD_REACTORS
330
7f8
102
}
330
7f8
100
AcDbXrecord
280
     1
102
SHADEPLOT
 70
     0
102
SHADEPLOTRESLEVEL
 70
     2
102
SHADEPLOTCUSTOMDPI
 70
   300
  0
ENDSEC
  0
EOF
