  0
SECTION
  2
HEADER
  9
$ACADVER
  1
AC1018
  9
$ACADMAINTVER
 70
     0
  9
$DWGCODEPAGE
  3
ANSI_932
  9
$INSBASE
 10
0.000000
 20
0.000000
 30
0.000000
  9
$EXTMIN
 10
0.000000
 20
0.000000
 30
0.000000
  9
$EXTMAX
 10
157.000000
 20
246.000000
 30
0.000000
  9
$LIMMIN
 10
0.000000
 20
0.000000
  9
$LIMMAX
 10
157.000000
 20
246.000000
  9
$ORTHOMODE
 70
     0
  9
$REGENMODE
 70
     1
  9
$FILLMODE
 70
     1
  9
$QTEXTMODE
 70
     0
  9
$MIRRTEXT
 70
     1
  9
$LTSCALE
 40
1.000000
  9
$ATTMODE
 70
     1
  9
$TEXTSIZE
 40
2.500000
  9
$TRACEWID
 40
1.000000
  9
$TEXTSTYLE
  7
BIGFONT
  9
$CLAYER
  8
0
  9
$CELTYPE
  6
BYLAYER
  9
$CECOLOR
 62
   256
  9
$CELTSCALE
 40
1.000000
  9
$DISPSILH
 70
     0
  9
$DIMSCALE
 40
1.000000
  9
$DIMASZ
 40
2.500000
  9
$DIMEXO
 40
0.625000
  9
$DIMDLI
 40
3.750000
  9
$DIMRND
 40
0.000000
  9
$DIMDLE
 40
0.000000
  9
$DIMEXE
 40
1.250000
  9
$DIMTP
 40
0.000000
  9
$DIMTM
 40
0.000000
  9
$DIMTXT
 40
2.500000
  9
$DIMCEN
 40
2.500000
  9
$DIMTSZ
 40
0.000000
  9
$DIMTOL
 70
     0
  9
$DIMLIM
 70
     0
  9
$DIMTIH
 70
     0
  9
$DIMTOH
 70
     0
  9
$DIMSE1
 70
     0
  9
$DIMSE2
 70
     0
  9
$DIMTAD
 70
     1
  9
$DIMZIN
 70
     8
  9
$DIMBLK
  1

  9
$DIMASO
 70
     1
  9
$DIMSHO
 70
     1
  9
$DIMPOST
  1

  9
$DIMAPOST
  1

  9
$DIMALT
 70
     0
  9
$DIMALTD
 70
     4
  9
$DIMALTF
 40
0.039400
  9
$DIMLFAC
 40
1.000000
  9
$DIMTOFL
 70
     1
  9
$DIMTVP
 40
0.000000
  9
$DIMTIX
 70
     0
  9
$DIMSOXD
 70
     0
  9
$DIMSAH
 70
     0
  9
$DIMBLK1
  1

  9
$DIMBLK2
  1

  9
$DIMSTYLE
  2
STANDARD
  9
$DIMCLRD
 70
     0
  9
$DIMCLRE
 70
     0
  9
$DIMCLRT
 70
     0
  9
$DIMTFAC
 40
1.000000
  9
$DIMGAP
 40
0.625000
  9
$DIMJUST
 70
     0
  9
$DIMSD1
 70
     0
  9
$DIMSD2
 70
     0
  9
$DIMTOLJ
 70
     1
  9
$DIMTZIN
 70
     0
  9
$DIMALTZ
 70
     0
  9
$DIMALTTZ
 70
     0
  9
$DIMUPT
 70
     0
  9
$DIMDEC
 70
     4
  9
$DIMTDEC
 70
     4
  9
$DIMALTU
 70
     8
  9
$DIMALTTD
 70
     4
  9
$DIMTXSTY
  7
STANDARD
  9
$DIMAUNIT
 70
     0
  9
$DIMADEC
 70
     0
  9
$DIMALTRND
 40
0.000000
  9
$DIMAZIN
 70
     0
  9
$DIMDSEP
 70
    46
  9
$DIMATFIT
 70
     3
  9
$DIMFRAC
 70
     0
  9
$DIMLDRBLK
  1

  9
$DIMLUNIT
 70
     2
  9
$DIMLWD
 70
-2
  9
$DIMLWE
 70
-2
  9
$DIMTMOVE
 70
     0
  9
$LUNITS
 70
     2
  9
$LUPREC
 70
     4
  9
$AXISMODE
 70
     0
  9
$SKETCHINC
 40
1.000000
  9
$FILLETRAD
 40
10.000000
  9
$AUNITS
 70
     0
  9
$AUPREC
 70
     0
  9
$MENU
  1
acad
  9
$ELEVATION
 40
0.000000
  9
$PELEVATION
 40
0.000000
  9
$THICKNESS
 40
0.000000
  9
$LIMCHECK
 70
     0
  9
$BLIPMODE
 70
     0
  9
$CHAMFERA
 40
10.000000
  9
$CHAMFERB
 40
10.000000
  9
$CHAMFERC
 40
20.000000
  9
$CHAMFERD
 40
0.000000
  9
$SKPOLY
 70
     0
  9
$TDCREATE
 40
2447851.677998
  9
$TDUCREATE
 40
2447851.677998
  9
$TDUPDATE
 40
2447851.677998
  9
$TDUUPDATE
 40
2447851.677998
  9
$TDINDWG
 40
0.000000
  9
$TDUSRTIMER
 40
0.000000
  9
$USRTIMER
 70
     1
  9
$ANGBASE
 50
0.000000
  9
$ANGDIR
 70
     0
  9
$PDMODE
 70
     0
  9
$PDSIZE
 40
0.000000
  9
$PLINEWID
 40
0.000000
  9
$SPLFRAME
 70
     0
  9
$SPLINETYPE
 70
     6
  9
$SPLINESEGS
 70
     8
  9
$HANDSEED
  5
FFFFFFF
  9
$SURFTAB1
 70
     6
  9
$SURFTAB2
 70
     6
  9
$SURFTYPE
 70
     6
  9
$SURFU
 70
     6
  9
$SURFV
 70
     6
  9
$UCSBASE
  2

  9
$UCSNAME
  2

  9
$UCSORG
 10
0.000000
 20
0.000000
 30
0.000000
  9
$UCSXDIR
 10
1.000000
 20
0.000000
 30
0.000000
  9
$UCSYDIR
 10
0.000000
 20
1.000000
 30
0.000000
  9
$UCSORTHOREF
  2

  9
$UCSORTHOVIEW
 70
     0
  9
$UCSORGTOP
 10
0.000000
 20
0.000000
 30
0.000000
  9
$UCSORGBOTTOM
 10
0.000000
 20
0.000000
 30
0.000000
  9
$UCSORGLEFT
 10
0.000000
 20
0.000000
 30
0.000000
  9
$UCSORGRIGHT
 10
0.000000
 20
0.000000
 30
0.000000
  9
$UCSORGFRONT
 10
0.000000
 20
0.000000
 30
0.000000
  9
$UCSORGBACK
 10
0.000000
 20
0.000000
 30
0.000000
  9
$PUCSBASE
  2

  9
$PUCSNAME
  2

  9
$PUCSORG
 10
0.000000
 20
0.000000
 30
0.000000
  9
$PUCSXDIR
 10
1.000000
 20
0.000000
 30
0.000000
  9
$PUCSYDIR
 10
0.000000
 20
1.000000
 30
0.000000
  9
$PUCSORTHOREF
  2

  9
$PUCSORTHOVIEW
 70
     0
  9
$PUCSORGTOP
 10
0.000000
 20
0.000000
 30
0.000000
  9
$PUCSORGBOTTOM
 10
0.000000
 20
0.000000
 30
0.000000
  9
$PUCSORGLEFT
 10
0.000000
 20
0.000000
 30
0.000000
  9
$PUCSORGRIGHT
 10
0.000000
 20
0.000000
 30
0.000000
  9
$PUCSORGFRONT
 10
0.000000
 20
0.000000
 30
0.000000
  9
$PUCSORGBACK
 10
0.000000
 20
0.000000
 30
0.000000
  9
$USERI1
 70
     0
  9
$USERI2
 70
     0
  9
$USERI3
 70
     0
  9
$USERI4
 70
     0
  9
$USERI5
 70
     0
  9
$USERR1
 40
0.000000
  9
$USERR2
 40
0.000000
  9
$USERR3
 40
0.000000
  9
$USERR4
 40
0.000000
  9
$USERR5
 40
0.000000
  9
$WORLDVIEW
 70
     1
  9
$SHADEDGE
 70
     3
  9
$SHADEDIF
 70
    70
  9
$TILEMODE
 70
     1
  9
$MAXACTVP
 70
    48
  9
$PINSBASE
 10
0.000000
 20
0.000000
 30
0.000000
  9
$PLIMCHECK
 70
     0
  9
$PEXTMIN
 10
100000000000000000000.000000
 20
100000000000000000000.000000
 30
100000000000000000000.000000
  9
$PEXTMAX
 10
-100000000000000000000.000000
 20
-100000000000000000000.000000
 30
-100000000000000000000.000000
  9
$PLIMMIN
 10
0.000000
 20
0.000000
  9
$PLIMMAX
 10
157.000000
 20
246.000000
  9
$UNITMODE
 70
     0
  9
$VISRETAIN
 70
     1
  9
$PLINEGEN
 70
     0
  9
$PSLTSCALE
 70
     1
  9
$TREEDEPTH
 70
  3020
  9
$CMLSTYLE
  2
STANDARD
  9
$CMLJUST
 70
     0
  9
$CMLSCALE
 40
20.000000
  9
$PROXYGRAPHICS
 70
     1
  9
$MEASUREMENT
 70
     1
  9
$CELWEIGHT
370
-1
  9
$ENDCAPS
280
     0
  9
$JOINSTYLE
280
     0
  9
$LWDISPLAY
290
     1
  9
$INSUNITS
 70
     0
  9
$HYPERLINKBASE
  1

  9
$STYLESHEET
  1

  9
$XEDIT
290
     1
  9
$CEPSNTYPE
380
     0
  9
$PSTYLEMODE
290
     1
  9
$FINGERPRINTGUID
  2
{01801163-5BC0-459E-B9C7-2188C09ED432}
  9
$VERSIONGUID
  2
{7F326DDD-95DF-42AD-9861-A0CD9F0961F2}
  9
$EXTNAMES
290
     1
  9
$PSVPSCALE
 40
0.0
  9
$OLESTARTUP
290
     0
  9
$SORTENTS
280
   127
  9
$INDEXCTL
280
     0
  9
$HIDETEXT
280
     1
  9
$XCLIPFRAME
290
     0
  9
$HALOGAP
280
     0
  9
$OBSCOLOR
 70
   257
  9
$OBSLTYPE
280
     0
  9
$INTERSECTIONDISPLAY
280
     0
  9
$INTERSECTIONCOLOR
 70
   257
  9
$DIMASSOC
280
     2
  9
$PROJECTNAME
  1

  0
ENDSEC
  0
SECTION
  2
TABLES
  0
TABLE
  2
VPORT
  5
a2
100
AcDbSymbolTable
 70
     2
  0
VPORT
  5
a5
100
AcDbSymbolTableRecord
100
AcDbViewportTableRecord
  2
*ACTIVE
 70
     0
 10
0.000000
 20
0.000000
 11
1.000000
 21
1.000000
 12
300.000000
 22
200.000000
 13
0.000000
 23
0.000000
 14
10.000000
 24
10.000000
 15
10.000000
 25
10.000000
 16
0.000000
 26
0.000000
 36
1.000000
 17
0.000000
 27
0.000000
 37
0.000000
 40
300.000000
 41
1.600432
 42
50.000000
 43
0.000000
 44
0.000000
 50
0.000000
 51
0.000000
 71
     0
 72
   100
 73
     1
 74
     1
 75
     0
 76
     0
 77
     0
 78
     0
  0
ENDTAB
  0
TABLE
  2
LTYPE
  5
a8
100
AcDbSymbolTable
 70
    11
  0
LTYPE
  5
ab
100
AcDbSymbolTableRecord
100
AcDbLinetypeTableRecord
  2
BYBLOCK
 70
    64
  3
BYBLOCK
 72
    65
 73
     0
 40
0.000000
  0
LTYPE
  5
ae
100
AcDbSymbolTableRecord
100
AcDbLinetypeTableRecord
  2
BYLAYER
 70
    64
  3
BYLAYER
 72
    65
 73
     0
 40
0.000000
  0
LTYPE
  5
b1
100
AcDbSymbolTableRecord
100
AcDbLinetypeTableRecord
  2
CONTINUOUS
 70
    64
  3
実線
 72
    65
 73
     0
 40
0.000000
  0
LTYPE
  5
b4
100
AcDbSymbolTableRecord
100
AcDbLinetypeTableRecord
  2
DASHED
 70
    64
  3
__ __ __ __ __ __ __ __ __ __ __ __ __ __ __
 72
    65
 73
     2
 40
0.750000
 49
0.500000
 74
     0
 49
-0.250000
 74
     0
  0
LTYPE
  5
b7
100
AcDbSymbolTableRecord
100
AcDbLinetypeTableRecord
  2
HIDDEN
 70
    64
  3
_ _ _ _ _ _ _ _ _ _ _ _ _ _ _ _ _ _ _ _ _ _ _
 72
    65
 73
     2
 40
0.375000
 49
0.250000
 74
     0
 49
-0.125000
 74
     0
  0
LTYPE
  5
ba
100
AcDbSymbolTableRecord
100
AcDbLinetypeTableRecord
  2
CENTER
 70
    64
  3
____ _ ____ _ ____ _ ____ _ ____ _ ____ _ ____
 72
    65
 73
     4
 40
2.000000
 49
1.250000
 74
     0
 49
-0.250000
 74
     0
 49
0.250000
 74
     0
 49
-0.250000
 74
     0
  0
LTYPE
  5
bd
100
AcDbSymbolTableRecord
100
AcDbLinetypeTableRecord
  2
PHANTOM
 70
    64
  3
_____ _ _ _____ _ _ _____ _ _ _____ _ _ ____
 72
    65
 73
     6
 40
2.500000
 49
1.250000
 74
     0
 49
-0.250000
 74
     0
 49
0.250000
 74
     0
 49
-0.250000
 74
     0
 49
0.250000
 74
     0
 49
-0.250000
 74
     0
  0
LTYPE
  5
c0
100
AcDbSymbolTableRecord
100
AcDbLinetypeTableRecord
  2
DOT
 70
    64
  3
...............................................
 72
    65
 73
     2
 40
0.250000
 49
0.000000
 74
     0
 49
-0.250000
 74
     0
  0
LTYPE
  5
c3
100
AcDbSymbolTableRecord
100
AcDbLinetypeTableRecord
  2
DASHDOT
 70
    64
  3
__ . __ . __ . __ . __ . __ . __ . __ . __ . __
 72
    65
 73
     4
 40
1.000000
 49
0.500000
 74
     0
 49
-0.250000
 74
     0
 49
0.000000
 74
     0
 49
-0.250000
 74
     0
  0
LTYPE
  5
c6
100
AcDbSymbolTableRecord
100
AcDbLinetypeTableRecord
  2
BORDER
 70
    64
  3
__ __ . __ __ . __ __ . __ __ . __ __ . __ __
 72
    65
 73
     6
 40
1.750000
 49
0.500000
 74
     0
 49
-0.250000
 74
     0
 49
0.500000
 74
     0
 49
-0.250000
 74
     0
 49
0.000000
 74
     0
 49
-0.250000
 74
     0
  0
LTYPE
  5
c9
100
AcDbSymbolTableRecord
100
AcDbLinetypeTableRecord
  2
DIVIDE
 70
    64
  3
__ . . __ . . __ . . __ . . __ . . __ . . __
 72
    65
 73
     6
 40
1.250000
 49
0.500000
 74
     0
 49
-0.250000
 74
     0
 49
0.000000
 74
     0
 49
-0.250000
 74
     0
 49
0.000000
 74
     0
 49
-0.250000
 74
     0
  0
ENDTAB
  0
TABLE
  2
LAYER
  5
cc
100
AcDbSymbolTable
 70
     2
  0
LAYER
  5
cf
100
AcDbSymbolTableRecord
100
AcDbLayerTableRecord
  2
0
 70
     0
 62
     7
  6
CONTINUOUS
370
 65533
390
	F
  0
LAYER
  5
d2
100
AcDbSymbolTableRecord
100
AcDbLayerTableRecord
  2
B
 70
     0
 62
     7
  6
CONTINUOUS
370
 65533
390
	F
  0
LAYER
  5
d5
100
AcDbSymbolTableRecord
100
AcDbLayerTableRecord
  2
C
 70
     0
 62
     7
  6
CONTINUOUS
370
 65533
390
	F
  0
LAYER
  5
d8
100
AcDbSymbolTableRecord
100
AcDbLayerTableRecord
  2
D
 70
     0
 62
     7
  6
CONTINUOUS
370
 65533
390
	F
  0
LAYER
  5
db
100
AcDbSymbolTableRecord
100
AcDbLayerTableRecord
  2
E
 70
     0
 62
     7
  6
CONTINUOUS
370
 65533
390
	F
  0
LAYER
  5
de
100
AcDbSymbolTableRecord
100
AcDbLayerTableRecord
  2
F
 70
     0
 62
     7
  6
CONTINUOUS
370
 65533
390
	F
  0
LAYER
  5
e1
100
AcDbSymbolTableRecord
100
AcDbLayerTableRecord
  2
G
 70
     0
 62
     7
  6
CONTINUOUS
370
 65533
390
	F
  0
LAYER
  5
e4
100
AcDbSymbolTableRecord
100
AcDbLayerTableRecord
  2
H
 70
     0
 62
     7
  6
CONTINUOUS
370
 65533
390
	F
  0
LAYER
  5
e7
100
AcDbSymbolTableRecord
100
AcDbLayerTableRecord
  2
I
 70
     0
 62
     7
  6
CONTINUOUS
370
 65533
390
	F
  0
LAYER
  5
ea
100
AcDbSymbolTableRecord
100
AcDbLayerTableRecord
  2
J
 70
     0
 62
     7
  6
CONTINUOUS
370
 65533
390
	F
  0
LAYER
  5
ed
100
AcDbSymbolTableRecord
100
AcDbLayerTableRecord
  2
K
 70
     0
 62
     7
  6
CONTINUOUS
370
 65533
390
	F
  0
LAYER
  5
f0
100
AcDbSymbolTableRecord
100
AcDbLayerTableRecord
  2
L
 70
     0
 62
     7
  6
CONTINUOUS
370
 65533
390
	F
  0
LAYER
  5
f3
100
AcDbSymbolTableRecord
100
AcDbLayerTableRecord
  2
M
 70
     0
 62
     7
  6
CONTINUOUS
370
 65533
390
	F
  0
LAYER
  5
f6
100
AcDbSymbolTableRecord
100
AcDbLayerTableRecord
  2
N
 70
     0
 62
     7
  6
CONTINUOUS
370
 65533
390
	F
  0
ENDTAB
  0
TABLE
  2
STYLE
  5
f9
100
AcDbSymbolTable
 70
     2
  0
STYLE
  5
fc
100
AcDbSymbolTableRecord
100
AcDbTextStyleTableRecord
  2
STANDARD
 70
     0
 40
0.000000
 41
0.500000
 50
0.000000
 71
     0
 42
0.300000
  3
txt
  4

  0
STYLE
  5
ff
100
AcDbSymbolTableRecord
100
AcDbTextStyleTableRecord
  2
BIGFONT
 70
    64
 40
0.000000
 41
1.000000
 50
0.000000
 71
     0
 42
0.200000
  3

  4
bigfont
  0
ENDTAB
  0
TABLE
  2
VIEW
  5
102
100
AcDbSymbolTable
 70
     0
  0
ENDTAB
  0
TABLE
  2
UCS
  5
105
100
AcDbSymbolTable
 70
     0
  0
ENDTAB
  0
TABLE
  2
APPID
  5
108
100
AcDbSymbolTable
 70
     3
  0
APPID
  5
10b
100
AcDbSymbolTableRecord
100
AcDbRegAppTableRecord
  2
ACAD
 70
     0
  0
APPID
  5
10e
100
AcDbSymbolTableRecord
100
AcDbRegAppTableRecord
  2
CONTENTTABDATA
 70
     0
  0
APPID
  5
111
100
AcDbSymbolTableRecord
100
AcDbRegAppTableRecord
  2
CONTENTCURRENTTAB
 70
     0
  0
ENDTAB
  0
TABLE
  2
DIMSTYLE
  5
114
330
     0
100
AcDbSymbolTable
 70
     2
100
AcDbDimStyleTable
 70
     1
  0
DIMSTYLE
105
117
100
AcDbSymbolTableRecord
100
AcDbDimStyleTableRecord
  2
STANDARD
 70
     0
  3

  4

  5

  6

  7

 40
1.000000
 41
0.180000
 42
0.062500
 43
0.380000
 44
0.180000
 45
0.000000
 46
0.000000
 47
0.000000
 48
0.000000
140
0.180000
141
0.090000
142
0.000000
143
25.400000
144
1.000000
145
0.000000
146
1.000000
147
0.090000
 71
     0
 72
     0
 73
     1
 74
     1
 75
     0
 76
     0
 77
     0
 78
     0
170
     0
171
     2
172
     0
173
     0
174
     0
175
     0
176
     0
177
     0
178
     0
270
     2
271
     4
272
     4
273
     2
274
     2
340
fc
275
     0
280
     0
281
     0
282
     0
283
     1
284
     0
285
     0
286
     0
287
     3
288
     0
  0
ENDTAB
  0
TABLE
  2
BLOCK_RECORD
  5
11a
100
AcDbSymbolTable
 70
     0
  0
BLOCK_RECORD
  5
11d
100
AcDbSymbolTableRecord
100
AcDbBlockTableRecord
  2
*MODEL_SPACE
  0
BLOCK_RECORD
  5
120
100
AcDbSymbolTableRecord
100
AcDbBlockTableRecord
  2
*PAPER_SPACE
  0
ENDTAB
  0
ENDSEC
  0
SECTION
  2
BLOCKS
  0
BLOCK
  5
123
330
124
100
AcDbEntity
  8
0
100
AcDbBlockBegin
  2
*Model_Space
 70
     0
 10
0.000000
 20
0.000000
 30
0.000000
  3
*Model_Space
  1
 
  0
ENDBLK
  5
126
330
124
100
AcDbEntity
  8
0
100
AcDbBlockEnd
  0
BLOCK
  5
129
330
12a
100
AcDbEntity
 67
     1
  8
0
100
AcDbBlockBegin
  2
*Paper_Space
 70
     0
 10
0.000000
 20
0.000000
 30
0.000000
  3
*Paper_Space
  1
 
  0
ENDBLK
  5
12c
330
12d
100
AcDbEntity
 67
     1
  8
0
100
AcDbBlockEnd
  0
ENDSEC
  0
SECTION
  2
ENTITIES
  0
LWPOLYLINE
  5
12f
100
AcDbEntity
  8
0
100
AcDbPolyline
 90
     4
 70
     1
 43
0.200000
 10
54.075000
 20
187.600000
 10
54.075000
 20
180.725000
 10
49.375000
 20
180.725000
 10
49.375000
 20
187.600000
  0
LWPOLYLINE
  5
13a
100
AcDbEntity
  8
0
100
AcDbPolyline
 90
     4
 70
     1
 43
0.200000
 10
49.375000
 20
215.075000
 10
49.375000
 20
72.900000
 10
48.600000
 20
72.900000
 10
48.600000
 20
215.075000
  0
LWPOLYLINE
  5
145
100
AcDbEntity
  8
0
100
AcDbPolyline
 90
     4
 70
     1
 43
0.200000
 10
45.000000
 20
215.075000
 10
45.000000
 20
72.900000
 10
44.225000
 20
72.900000
 10
44.225000
 20
215.075000
  0
LINE
  5
150
100
AcDbEntity
  8
0
370
    20
100
AcDbLine
 10
4.375000
 20
182.600000
 11
39.550000
 21
182.600000
  0
LINE
  5
153
100
AcDbEntity
  8
0
370
    20
100
AcDbLine
 10
54.075000
 20
182.600000
 11
74.375000
 21
182.600000
  0
LWPOLYLINE
  5
156
100
AcDbEntity
  8
0
100
AcDbPolyline
 90
     4
 70
     1
 43
0.200000
 10
44.225000
 20
187.600000
 10
44.225000
 20
180.725000
 10
39.525000
 20
180.725000
 10
39.525000
 20
187.600000
  0
LINE
  5
161
100
AcDbEntity
  8
0
370
    20
100
AcDbLine
 10
45.050000
 20
76.075000
 11
48.550000
 21
76.075000
  0
LINE
  5
164
100
AcDbEntity
  8
0
370
    20
100
AcDbLine
 10
62.725000
 20
182.425000
 11
60.500000
 21
179.100000
  0
LINE
  5
167
100
AcDbEntity
  8
0
370
    20
100
AcDbLine
 10
64.400000
 20
182.425000
 11
62.175000
 21
179.100000
  0
LINE
  5
16a
100
AcDbEntity
  8
0
370
    20
100
AcDbLine
 10
66.075000
 20
182.425000
 11
63.850000
 21
179.100000
  0
LINE
  5
16d
100
AcDbEntity
  8
0
370
    20
100
AcDbLine
 10
60.750000
 20
182.550000
 11
61.775000
 21
181.000000
  0
LINE
  5
170
100
AcDbEntity
  8
0
370
    20
100
AcDbLine
 10
59.075000
 20
182.550000
 11
60.925000
 21
179.750000
  0
LINE
  5
173
100
AcDbEntity
  8
0
370
    20
100
AcDbLine
 10
57.400000
 20
182.550000
 11
59.650000
 21
179.100000
  0
LINE
  5
176
100
AcDbEntity
  8
0
370
    20
100
AcDbLine
 10
64.500000
 20
180.050000
 11
65.225000
 21
179.100000
  0
LINE
  5
179
100
AcDbEntity
  8
0
370
    20
100
AcDbLine
 10
65.225000
 20
181.200000
 11
66.825000
 21
179.100000
  0
LINE
  5
17c
100
AcDbEntity
  8
0
370
    20
100
AcDbLine
 10
65.950000
 20
182.350000
 11
68.425000
 21
179.100000
  0
LINE
  5
17f
100
AcDbEntity
  8
0
370
    20
100
AcDbLine
 10
14.900000
 20
182.325000
 11
12.800000
 21
179.200000
  0
LINE
  5
182
100
AcDbEntity
  8
0
370
    20
100
AcDbLine
 10
16.575000
 20
182.325000
 11
14.475000
 21
179.200000
  0
LINE
  5
185
100
AcDbEntity
  8
0
370
    20
100
AcDbLine
 10
18.250000
 20
182.325000
 11
16.150000
 21
179.200000
  0
LINE
  5
188
100
AcDbEntity
  8
0
370
    20
100
AcDbLine
 10
12.925000
 20
182.450000
 11
13.950000
 21
180.900000
  0
LINE
  5
18b
100
AcDbEntity
  8
0
370
    20
100
AcDbLine
 10
11.250000
 20
182.450000
 11
13.100000
 21
179.650000
  0
LINE
  5
18e
100
AcDbEntity
  8
0
370
    20
100
AcDbLine
 10
9.575000
 20
182.450000
 11
11.700000
 21
179.200000
  0
LINE
  5
191
100
AcDbEntity
  8
0
370
    20
100
AcDbLine
 10
24.000000
 20
182.325000
 11
21.900000
 21
179.200000
  0
LINE
  5
194
100
AcDbEntity
  8
0
370
    20
100
AcDbLine
 10
25.675000
 20
182.325000
 11
23.575000
 21
179.200000
  0
LINE
  5
197
100
AcDbEntity
  8
0
370
    20
100
AcDbLine
 10
27.350000
 20
182.325000
 11
25.250000
 21
179.200000
  0
LINE
  5
19a
100
AcDbEntity
  8
0
370
    20
100
AcDbLine
 10
22.025000
 20
182.450000
 11
23.050000
 21
180.900000
  0
LINE
  5
19d
100
AcDbEntity
  8
0
370
    20
100
AcDbLine
 10
20.350000
 20
182.450000
 11
22.200000
 21
179.650000
  0
LINE
  5
1a0
100
AcDbEntity
  8
0
370
    20
100
AcDbLine
 10
18.675000
 20
182.450000
 11
20.800000
 21
179.200000
  0
LINE
  5
1a3
100
AcDbEntity
  8
0
370
    20
100
AcDbLine
 10
17.875000
 20
181.200000
 11
19.175000
 21
179.200000
  0
LINE
  5
1a6
100
AcDbEntity
  8
0
370
    20
100
AcDbLine
 10
17.075000
 20
179.950000
 11
17.550000
 21
179.200000
  0
LINE
  5
1a9
100
AcDbEntity
  8
0
370
    20
100
AcDbLine
 10
47.025000
 20
105.900000
 11
47.025000
 21
222.300000
  0
LINE
  5
1ac
100
AcDbEntity
  8
0
370
    20
100
AcDbLine
 10
45.000000
 20
72.900000
 11
48.600000
 21
72.900000
  0
HATCH
  5
1af
330
F6
100
AcDbEntity
  8
0
100
AcDbHatch
 10
0.0
 20
0.0
 30
0.0
210
0.0
220
0.0
230
1.0
  2
SOLID
 70
     1
 71
     0
 91
     1
 92
     7
 72
     0
 73
     1
 93
     4
 10
50.625000
 20
180.675000
 10
50.625000
 20
72.850000
 10
49.375000
 20
72.850000
 10
49.375000
 20
180.675000
 97
     1
330
1b2
 75
     0
 76
     1
 47
0.651316
 98
     1
 10
0.0
 20
0.0
  0
LWPOLYLINE
  5
1b2
330
F6
100
AcDbEntity
  8
0
100
AcDbPolyline
 90
     4
 70
     1
 43
0.200000
 10
50.625000
 20
180.675000
 10
50.625000
 20
72.850000
 10
49.375000
 20
72.850000
 10
49.375000
 20
180.675000
  0
HATCH
  5
1bd
330
F6
100
AcDbEntity
  8
0
100
AcDbHatch
 10
0.0
 20
0.0
 30
0.0
210
0.0
220
0.0
230
1.0
  2
SOLID
 70
     1
 71
     0
 91
     1
 92
     7
 72
     0
 73
     1
 93
     4
 10
43.125000
 20
180.675000
 10
44.150000
 20
180.675000
 10
44.150000
 20
72.850000
 10
43.125000
 20
72.850000
 97
     1
330
1c0
 75
     0
 76
     1
 47
0.651316
 98
     1
 10
0.0
 20
0.0
  0
LWPOLYLINE
  5
1c0
330
F6
100
AcDbEntity
  8
0
100
AcDbPolyline
 90
     4
 70
     1
 43
0.200000
 10
43.125000
 20
180.675000
 10
44.150000
 20
180.675000
 10
44.150000
 20
72.850000
 10
43.125000
 20
72.850000
  0
LINE
  5
1cb
100
AcDbEntity
  8
0
370
    20
100
AcDbLine
 10
47.425000
 20
104.625000
 11
46.275000
 21
104.625000
  0
LINE
  5
1ce
100
AcDbEntity
  8
0
370
    20
100
AcDbLine
 10
47.175000
 20
105.925000
 11
47.175000
 21
105.250000
  0
LINE
  5
1d1
100
AcDbEntity
  8
0
370
    20
100
AcDbLine
 10
46.475000
 20
105.925000
 11
47.225000
 21
105.925000
  0
LINE
  5
1d4
100
AcDbEntity
  8
0
370
    20
100
AcDbLine
 10
46.500000
 20
105.925000
 11
46.500000
 21
105.250000
  0
LINE
  5
1d7
100
AcDbEntity
  8
0
370
    20
100
AcDbLine
 10
46.250000
 20
87.550000
 11
46.475000
 21
87.000000
  0
LINE
  5
1da
100
AcDbEntity
  8
0
370
    20
100
AcDbLine
 10
47.225000
 20
87.000000
 11
46.500000
 21
87.000000
  0
LINE
  5
1dd
100
AcDbEntity
  8
0
370
    20
100
AcDbLine
 10
46.500000
 20
105.525000
 11
47.200000
 21
105.525000
  0
LINE
  5
1e0
100
AcDbEntity
  8
0
370
    20
100
AcDbLine
 10
47.450000
 20
105.250000
 11
46.250000
 21
105.250000
  0
LINE
  5
1e3
100
AcDbEntity
  8
0
370
    20
100
AcDbLine
 10
46.250000
 20
105.250000
 11
46.250000
 21
87.550000
  0
LINE
  5
1e6
100
AcDbEntity
  8
0
370
    20
100
AcDbLine
 10
46.250000
 20
87.550000
 11
47.450000
 21
87.550000
  0
LINE
  5
1e9
100
AcDbEntity
  8
0
370
    20
100
AcDbLine
 10
47.425000
 20
87.550000
 11
47.425000
 21
105.250000
  0
ELLIPSE
  5
1ec
100
AcDbEntity
  8
0
370
    20
100
AcDbEllipse
 10
45.650000
 20
99.175000
 30
0.000000
 11
0.0000000000000000
 21
0.325000
 31
0.000000
210
0.000000
220
0.000000
230
1.000000
 40
0.923077
 41
0.825282
 42
3.966874
  0
ELLIPSE
  5
1ef
100
AcDbEntity
  8
0
370
    20
100
AcDbEllipse
 10
48.000000
 20
101.525000
 30
0.000000
 11
0.325000
 21
-0.0000000000000000
 31
0.000000
210
0.000000
220
0.000000
230
1.000000
 40
0.923077
 41
5.457904
 42
2.316311
  0
LINE
  5
1f2
100
AcDbEntity
  8
0
370
    20
100
AcDbLine
 10
45.875000
 20
98.950000
 11
48.225000
 21
101.300000
  0
LINE
  5
1f5
100
AcDbEntity
  8
0
370
    20
100
AcDbLine
 10
45.425000
 20
99.375000
 11
47.800000
 21
101.750000
  0
ARC
  5
1f8
100
AcDbEntity
  8
0
370
    20
100
AcDbCircle
 10
48.025000
 20
101.525000
 40
0.575000
100
AcDbArc
 50
256.750000
 51
193.250000
  0
POINT
  5
1fb
100
AcDbEntity
  8
0
100
AcDbPoint
 10
46.825000
 20
100.325000
  0
ARC
  5
1fe
100
AcDbEntity
  8
0
370
    20
100
AcDbCircle
 10
45.650000
 20
99.175000
 40
0.600000
100
AcDbArc
 50
76.750000
 51
13.250000
  0
ARC
  5
201
100
AcDbEntity
  8
0
370
    20
100
AcDbCircle
 10
45.650000
 20
89.075000
 40
0.300000
100
AcDbArc
 50
135.000000
 51
315.000000
  0
ARC
  5
204
100
AcDbEntity
  8
0
370
    20
100
AcDbCircle
 10
48.000000
 20
91.450000
 40
0.325000
100
AcDbArc
 50
315.000000
 51
135.000000
  0
LINE
  5
207
100
AcDbEntity
  8
0
370
    20
100
AcDbLine
 10
45.875000
 20
88.875000
 11
48.225000
 21
91.225000
  0
LINE
  5
20a
100
AcDbEntity
  8
0
370
    20
100
AcDbLine
 10
45.425000
 20
89.300000
 11
47.800000
 21
91.675000
  0
ELLIPSE
  5
20d
100
AcDbEntity
  8
0
370
    20
100
AcDbEllipse
 10
48.025000
 20
91.450000
 30
0.000000
 11
0.000000000000000
 21
0.600000
 31
0.000000
210
0.000000
220
0.000000
230
1.000000
 40
0.958333
 41
2.902292
 42
1.794758
  0
POINT
  5
210
100
AcDbEntity
  8
0
100
AcDbPoint
 10
46.825000
 20
90.250000
  0
ARC
  5
213
100
AcDbEntity
  8
0
370
    20
100
AcDbCircle
 10
45.650000
 20
89.100000
 40
0.600000
100
AcDbArc
 50
76.750000
 51
13.250000
  0
LINE
  5
216
100
AcDbEntity
  8
0
370
    20
100
AcDbLine
 10
47.425000
 20
87.550000
 11
47.200000
 21
87.000000
  0
HATCH
  5
219
330
F6
100
AcDbEntity
  8
0
100
AcDbHatch
 10
0.0
 20
0.0
 30
0.0
210
0.0
220
0.0
230
1.0
  2
SOLID
 70
     1
 71
     0
 91
     1
 92
     7
 72
     0
 73
     1
 93
     4
 10
104.000000
 20
151.275000
 10
104.000000
 20
156.300000
 10
105.375000
 20
156.300000
 10
105.375000
 20
151.275000
 97
     1
330
21c
 75
     0
 76
     1
 47
0.651316
 98
     1
 10
0.0
 20
0.0
  0
LWPOLYLINE
  5
21c
330
F6
100
AcDbEntity
  8
0
100
AcDbPolyline
 90
     4
 70
     1
 43
0.200000
 10
104.000000
 20
151.275000
 10
104.000000
 20
156.300000
 10
105.375000
 20
156.300000
 10
105.375000
 20
151.275000
  0
LINE
  5
227
100
AcDbEntity
  8
0
370
    20
100
AcDbLine
 10
105.375000
 20
151.250000
 11
105.375000
 21
156.300000
  0
LINE
  5
22a
100
AcDbEntity
  8
0
370
    20
100
AcDbLine
 10
107.125000
 20
145.575000
 11
102.075000
 21
145.575000
  0
LINE
  5
22d
100
AcDbEntity
  8
0
370
    20
100
AcDbLine
 10
106.025000
 20
151.275000
 11
106.025000
 21
148.300000
  0
LINE
  5
230
100
AcDbEntity
  8
0
370
    20
100
AcDbLine
 10
106.100000
 20
151.275000
 11
102.975000
 21
151.275000
  0
LINE
  5
233
100
AcDbEntity
  8
0
370
    20
100
AcDbLine
 10
103.075000
 20
151.275000
 11
103.075000
 21
148.300000
  0
HATCH
  5
236
330
F6
100
AcDbEntity
  8
0
100
AcDbHatch
 10
0.0
 20
0.0
 30
0.0
210
0.0
220
0.0
230
1.0
  2
SOLID
 70
     1
 71
     0
 91
     1
 92
     7
 72
     0
 73
     1
 93
     4
 10
102.000000
 20
70.800000
 10
107.100000
 20
70.800000
 10
106.100000
 20
68.350000
 10
102.975000
 20
68.350000
 97
     1
330
239
 75
     0
 76
     1
 47
0.651316
 98
     1
 10
0.0
 20
0.0
  0
LWPOLYLINE
  5
239
330
F6
100
AcDbEntity
  8
0
100
AcDbPolyline
 90
     4
 70
     1
 43
0.200000
 10
102.000000
 20
70.800000
 10
107.100000
 20
70.800000
 10
106.100000
 20
68.350000
 10
102.975000
 20
68.350000
  0
LINE
  5
244
100
AcDbEntity
  8
0
370
    20
100
AcDbLine
 10
102.000000
 20
70.800000
 11
102.975000
 21
68.350000
  0
LINE
  5
247
100
AcDbEntity
  8
0
370
    20
100
AcDbLine
 10
102.900000
 20
68.350000
 11
106.125000
 21
68.350000
  0
LINE
  5
24a
100
AcDbEntity
  8
0
370
    20
100
AcDbLine
 10
103.075000
 20
149.525000
 11
106.125000
 21
149.525000
  0
LINE
  5
24d
100
AcDbEntity
  8
0
370
    20
100
AcDbLine
 10
107.250000
 20
148.300000
 11
102.000000
 21
148.300000
  0
LINE
  5
250
100
AcDbEntity
  8
0
370
    20
100
AcDbLine
 10
102.000000
 20
148.300000
 11
102.000000
 21
70.800000
  0
LINE
  5
253
100
AcDbEntity
  8
0
370
    20
100
AcDbLine
 10
102.000000
 20
70.800000
 11
107.250000
 21
70.800000
  0
LINE
  5
256
100
AcDbEntity
  8
0
370
    20
100
AcDbLine
 10
107.125000
 20
70.800000
 11
107.125000
 21
148.300000
  0
ELLIPSE
  5
259
100
AcDbEntity
  8
0
370
    20
100
AcDbEllipse
 10
99.350000
 20
121.700000
 30
0.000000
 11
0.000000000000000
 21
1.400000
 31
0.000000
210
0.000000
220
0.000000
230
1.000000
 40
0.946429
 41
0.809942
 42
3.951535
  0
ELLIPSE
  5
25c
100
AcDbEntity
  8
0
370
    20
100
AcDbEllipse
 10
109.650000
 20
132.000000
 30
0.000000
 11
1.400000
 21
-0.000000000000000
 31
0.000000
210
0.000000
220
0.000000
230
1.000000
 40
0.946429
 41
5.473243
 42
2.331651
  0
ELLIPSE
  5
25f
100
AcDbEntity
  8
0
370
    20
100
AcDbEllipse
 10
109.750000
 20
132.000000
 30
0.000000
 11
2.525000
 21
-0.000000000000000
 31
0.000000
210
0.000000
220
0.000000
230
1.000000
 40
0.990099
 41
4.482292
 42
3.374758
  0
POINT
  5
262
100
AcDbEntity
  8
0
100
AcDbPoint
 10
104.475000
 20
126.725000
  0
ELLIPSE
  5
265
100
AcDbEntity
  8
0
370
    20
100
AcDbEllipse
 10
99.350000
 20
121.700000
 30
0.000000
 11
2.650000
 21
-0.000000000000000
 31
0.000000
210
0.000000
220
0.000000
230
1.000000
 40
0.990566
 41
1.340699
 42
0.233165
  0
ARC
  5
268
100
AcDbEntity
  8
0
370
    20
100
AcDbCircle
 10
99.350000
 20
77.475000
 40
1.325000
100
AcDbArc
 50
135.000000
 51
315.000000
  0
ARC
  5
26b
100
AcDbEntity
  8
0
370
    20
100
AcDbCircle
 10
109.650000
 20
87.850000
 40
1.400000
100
AcDbArc
 50
315.000000
 51
135.000000
  0
ELLIPSE
  5
26e
100
AcDbEntity
  8
0
370
    20
100
AcDbEllipse
 10
109.750000
 20
87.850000
 30
0.000000
 11
0.000000000000000
 21
2.625000
 31
0.000000
210
0.000000
220
0.000000
230
1.000000
 40
0.961905
 41
2.902292
 42
1.794758
  0
POINT
  5
271
100
AcDbEntity
  8
0
100
AcDbPoint
 10
104.475000
 20
82.600000
  0
ARC
  5
274
100
AcDbEntity
  8
0
370
    20
100
AcDbCircle
 10
99.350000
 20
77.575000
 40
2.650000
100
AcDbArc
 50
76.750000
 51
13.250000
  0
LINE
  5
277
100
AcDbEntity
  8
0
370
    20
100
AcDbLine
 10
106.125000
 20
68.350000
 11
107.125000
 21
70.800000
  0
LINE
  5
27a
100
AcDbEntity
  8
0
370
    20
100
AcDbLine
 10
98.375000
 20
122.600000
 11
102.000000
 21
126.225000
  0
LINE
  5
27d
100
AcDbEntity
  8
0
370
    20
100
AcDbLine
 10
107.125000
 20
131.350000
 11
108.750000
 21
132.975000
  0
LINE
  5
280
100
AcDbEntity
  8
0
370
    20
100
AcDbLine
 10
100.350000
 20
120.725000
 11
102.000000
 21
122.375000
  0
LINE
  5
283
100
AcDbEntity
  8
0
370
    20
100
AcDbLine
 10
107.125000
 20
127.500000
 11
110.650000
 21
131.000000
  0
LINE
  5
286
100
AcDbEntity
  8
0
370
    20
100
AcDbLine
 10
98.375000
 20
78.450000
 11
102.000000
 21
82.100000
  0
LINE
  5
289
100
AcDbEntity
  8
0
370
    20
100
AcDbLine
 10
107.125000
 20
87.225000
 11
108.750000
 21
88.850000
  0
LINE
  5
28c
100
AcDbEntity
  8
0
370
    20
100
AcDbLine
 10
100.275000
 20
76.500000
 11
102.000000
 21
78.225000
  0
LINE
  5
28f
100
AcDbEntity
  8
0
370
    20
100
AcDbLine
 10
107.125000
 20
83.350000
 11
110.650000
 21
86.875000
  0
CIRCLE
  5
292
100
AcDbEntity
  8
0
370
    20
100
AcDbCircle
 10
104.475000
 20
82.600000
 40
0.525000
  0
CIRCLE
  5
295
100
AcDbEntity
  8
0
370
    20
100
AcDbCircle
 10
104.475000
 20
126.675000
 40
0.525000
  0
LWPOLYLINE
  5
298
100
AcDbEntity
  8
0
100
AcDbPolyline
 90
     8
 70
     1
 43
0.200000
 10
45.050000
 20
215.350000
 10
43.950000
 20
215.350000
 10
43.950000
 20
211.100000
 10
43.450000
 20
211.100000
 10
43.450000
 20
217.500000
 10
42.825000
 20
217.500000
 10
42.825000
 20
218.225000
 10
45.050000
 20
218.225000
  0
LWPOLYLINE
  5
2ab
100
AcDbEntity
  8
0
100
AcDbPolyline
 90
     8
 70
     1
 43
0.200000
 10
48.600000
 20
215.350000
 10
49.700000
 20
215.350000
 10
49.700000
 20
211.100000
 10
50.200000
 20
211.100000
 10
50.200000
 20
217.500000
 10
50.825000
 20
217.500000
 10
50.825000
 20
218.225000
 10
48.600000
 20
218.225000
  0
LINE
  5
2be
100
AcDbEntity
  8
0
370
    20
100
AcDbLine
 10
42.425000
 20
218.625000
 11
42.425000
 21
222.625000
  0
LINE
  5
2c1
100
AcDbEntity
  8
0
370
    20
100
AcDbLine
 10
42.925000
 20
223.025000
 11
50.825000
 21
223.025000
  0
LINE
  5
2c4
100
AcDbEntity
  8
0
370
    20
100
AcDbLine
 10
51.325000
 20
222.625000
 11
51.325000
 21
218.625000
  0
LINE
  5
2c7
100
AcDbEntity
  8
0
370
    20
100
AcDbLine
 10
50.825000
 20
218.225000
 11
42.925000
 21
218.225000
  0
ELLIPSE
  5
2ca
100
AcDbEntity
  8
0
370
    20
100
AcDbEllipse
 10
42.950000
 20
222.600000
 30
0.000000
 11
0.500000
 21
-0.000000000000000
 31
0.000000
210
0.000000
220
0.000000
230
1.000000
 40
0.800000
 41
1.567728
 42
3.141593
  0
ELLIPSE
  5
2cd
100
AcDbEntity
  8
0
370
    20
100
AcDbEllipse
 10
50.800000
 20
222.600000
 30
0.000000
 11
0.500000
 21
-0.000000000000000
 31
0.000000
210
0.000000
220
0.000000
230
1.000000
 40
0.800000
 41
0.000000
 42
1.567728
  0
ELLIPSE
  5
2d0
100
AcDbEntity
  8
0
370
    20
100
AcDbEllipse
 10
50.800000
 20
218.625000
 30
0.000000
 11
0.500000
 21
-0.000000000000000
 31
0.000000
210
0.000000
220
0.000000
230
1.000000
 40
0.800000
 41
4.709321
 42
6.283185
  0
ELLIPSE
  5
2d3
100
AcDbEntity
  8
0
370
    20
100
AcDbEllipse
 10
42.950000
 20
218.625000
 30
0.000000
 11
0.500000
 21
-0.000000000000000
 31
0.000000
210
0.000000
220
0.000000
230
1.000000
 40
0.800000
 41
3.141593
 42
4.709321
  0
CIRCLE
  5
2d6
100
AcDbEntity
  8
0
370
    20
100
AcDbCircle
 10
44.775000
 20
220.575000
 40
2.050000
  0
ARC
  5
2d9
100
AcDbEntity
  8
0
370
    20
100
AcDbCircle
 10
48.875000
 20
220.575000
 40
2.050000
100
AcDbArc
 50
270.000000
 51
228.812500
  0
CIRCLE
  5
2dc
100
AcDbEntity
  8
0
370
    20
100
AcDbCircle
 10
48.875000
 20
220.575000
 40
0.375000
  0
ARC
  5
2df
100
AcDbEntity
  8
0
370
    20
100
AcDbCircle
 10
48.875000
 20
220.575000
 40
0.650000
100
AcDbArc
 50
345.000000
 51
159.750000
  0
CIRCLE
  5
2e2
100
AcDbEntity
  8
0
370
    20
100
AcDbCircle
 10
44.050000
 20
220.575000
 40
0.450000
  0
LWPOLYLINE
  5
2e5
100
AcDbEntity
  8
0
100
AcDbPolyline
 90
     4
 70
     0
 43
0.200000
 10
42.975000
 20
221.500000
 10
42.725000
 20
222.550000
 10
43.200000
 20
222.675000
 10
43.325000
 20
222.050000
  0
LWPOLYLINE
  5
2f0
100
AcDbEntity
  8
0
100
AcDbPolyline
 90
     3
 70
     0
 43
0.200000
 10
49.475000
 20
220.400000
 10
49.225000
 20
219.225000
 10
48.950000
 20
218.225000
  0
LINE
  5
2f9
100
AcDbEntity
  8
0
370
    20
100
AcDbLine
 10
48.275000
 20
220.750000
 11
47.175000
 21
218.225000
  0
LINE
  5
2fc
100
AcDbEntity
  8
0
370
    20
100
AcDbLine
 10
46.625000
 20
105.900000
 11
46.625000
 21
222.300000
  0
HATCH
  5
2ff
330
F6
100
AcDbEntity
  8
0
100
AcDbHatch
 10
0.0
 20
0.0
 30
0.0
210
0.0
220
0.0
230
1.0
  2
SOLID
 70
     1
 71
     0
 91
     1
 92
     7
 72
     0
 73
     1
 93
    19
 10
53.675000
 20
228.950000
 10
53.675000
 20
229.375000
 10
53.625000
 20
229.375000
 10
52.250000
 20
229.225000
 10
50.925000
 20
228.825000
 10
49.700000
 20
228.150000
 10
48.625000
 20
227.275000
 10
47.775000
 20
226.175000
 10
47.125000
 20
224.950000
 10
46.725000
 20
223.625000
 10
46.625000
 20
222.325000
 10
47.025000
 20
222.350000
 10
47.150000
 20
223.625000
 10
47.525000
 20
224.875000
 10
48.150000
 20
226.025000
 10
49.000000
 20
227.025000
 10
50.000000
 20
227.850000
 10
51.150000
 20
228.450000
 10
52.400000
 20
228.825000
 97
     1
330
302
 75
     0
 76
     1
 47
0.651316
 98
     1
 10
0.0
 20
0.0
  0
LWPOLYLINE
  5
302
330
F6
100
AcDbEntity
  8
0
100
AcDbPolyline
 90
    20
 70
     0
 43
0.200000
 10
53.675000
 20
228.950000
 10
53.675000
 20
229.375000
 10
53.625000
 20
229.375000
 10
52.250000
 20
229.225000
 10
50.925000
 20
228.825000
 10
49.700000
 20
228.150000
 10
48.625000
 20
227.275000
 10
47.775000
 20
226.175000
 10
47.125000
 20
224.950000
 10
46.725000
 20
223.625000
 10
46.625000
 20
222.325000
 10
47.025000
 20
222.350000
 10
47.150000
 20
223.625000
 10
47.525000
 20
224.875000
 10
48.150000
 20
226.025000
 10
49.000000
 20
227.025000
 10
50.000000
 20
227.850000
 10
51.150000
 20
228.450000
 10
52.400000
 20
228.825000
 10
53.675000
 20
228.950000
  0
ARC
  5
32d
100
AcDbEntity
  8
0
370
    20
100
AcDbCircle
 10
53.700000
 20
222.300000
 40
7.075000
100
AcDbArc
 50
90.000000
 51
180.562500
  0
ARC
  5
330
100
AcDbEntity
  8
0
370
    20
100
AcDbCircle
 10
53.675000
 20
222.275000
 40
6.650000
100
AcDbArc
 50
90.000000
 51
179.625000
  0
LINE
  5
333
100
AcDbEntity
  8
0
370
    20
100
AcDbLine
 10
104.000000
 20
151.250000
 11
104.000000
 21
156.300000
  0
HATCH
  5
336
330
F6
100
AcDbEntity
  8
0
100
AcDbHatch
 10
0.0
 20
0.0
 30
0.0
210
0.0
220
0.0
230
1.0
  2
SOLID
 70
     1
 71
     0
 91
     1
 92
     7
 72
     0
 73
     1
 93
     4
 10
46.625000
 20
222.300000
 10
47.025000
 20
222.325000
 10
47.025000
 20
106.025000
 10
46.675000
 20
106.025000
 97
     1
330
339
 75
     0
 76
     1
 47
0.651316
 98
     1
 10
0.0
 20
0.0
  0
LWPOLYLINE
  5
339
330
F6
100
AcDbEntity
  8
0
100
AcDbPolyline
 90
     4
 70
     1
 43
0.200000
 10
46.625000
 20
222.300000
 10
47.025000
 20
222.325000
 10
47.025000
 20
106.025000
 10
46.675000
 20
106.025000
  0
ELLIPSE
  5
344
100
AcDbEntity
  8
0
370
    20
100
AcDbEllipse
 10
104.675000
 20
110.350000
 30
0.000000
 11
0.0000000000000
 21
45.925000
 31
0.000000
210
0.000000
220
0.000000
230
1.000000
 40
0.551443
 41
0.000000
 42
6.283185
  0
HATCH
  5
347
330
F6
100
AcDbEntity
  8
0
100
AcDbHatch
 10
0.0
 20
0.0
 30
0.0
210
0.0
220
0.0
230
1.0
  2
SOLID
 70
     1
 71
     0
 91
     1
 92
     7
 72
     0
 73
     1
 93
     8
 10
88.475000
 20
145.650000
 10
90.125000
 20
148.025000
 10
91.925000
 20
149.975000
 10
93.100000
 20
151.225000
 10
93.100000
 20
69.425000
 10
91.225000
 20
71.150000
 10
89.675000
 20
73.025000
 10
88.500000
 20
74.825000
 97
     1
330
34a
 75
     0
 76
     1
 47
0.651316
 98
     1
 10
0.0
 20
0.0
  0
LWPOLYLINE
  5
34a
330
F6
100
AcDbEntity
  8
0
100
AcDbPolyline
 90
     8
 70
     1
 43
0.200000
 10
88.475000
 20
145.650000
 10
90.125000
 20
148.025000
 10
91.925000
 20
149.975000
 10
93.100000
 20
151.225000
 10
93.100000
 20
69.425000
 10
91.225000
 20
71.150000
 10
89.675000
 20
73.025000
 10
88.500000
 20
74.825000
  0
HATCH
  5
35d
330
F6
100
AcDbEntity
  8
0
100
AcDbHatch
 10
0.0
 20
0.0
 30
0.0
210
0.0
220
0.0
230
1.0
  2
SOLID
 70
     1
 71
     0
 91
     1
 92
     7
 72
     0
 73
     1
 93
     8
 10
115.750000
 20
151.700000
 10
118.800000
 20
148.800000
 10
120.600000
 20
146.075000
 10
121.225000
 20
145.200000
 10
121.225000
 20
75.450000
 10
119.275000
 20
72.775000
 10
117.400000
 20
70.525000
 10
115.750000
 20
68.875000
 97
     1
330
360
 75
     0
 76
     1
 47
0.651316
 98
     1
 10
0.0
 20
0.0
  0
LWPOLYLINE
  5
360
330
F6
100
AcDbEntity
  8
0
100
AcDbPolyline
 90
     8
 70
     1
 43
0.200000
 10
115.750000
 20
151.700000
 10
118.800000
 20
148.800000
 10
120.600000
 20
146.075000
 10
121.225000
 20
145.200000
 10
121.225000
 20
75.450000
 10
119.275000
 20
72.775000
 10
117.400000
 20
70.525000
 10
115.750000
 20
68.875000
  0
LINE
  5
373
100
AcDbEntity
  8
0
  6
DOT
 62
     7
370
    20
100
AcDbLine
 10
96.500000
 20
153.950000
 11
96.500000
 21
66.900000
  0
LINE
  5
376
100
AcDbEntity
  8
0
  6
DOT
 62
     7
370
    20
100
AcDbLine
 10
112.275000
 20
66.550000
 11
112.275000
 21
154.200000
  0
LINE
  5
379
100
AcDbEntity
  8
0
370
    20
100
AcDbLine
 10
115.675000
 20
151.775000
 11
115.675000
 21
69.000000
  0
LINE
  5
37c
100
AcDbEntity
  8
0
370
    20
100
AcDbLine
 10
93.100000
 20
69.525000
 11
93.100000
 21
151.200000
  0
LINE
  5
37f
100
AcDbEntity
  8
0
370
    20
100
AcDbLine
 10
97.750000
 20
154.525000
 11
97.750000
 21
66.200000
  0
LINE
  5
382
100
AcDbEntity
  8
0
370
    20
100
AcDbLine
 10
111.225000
 20
65.925000
 11
111.225000
 21
154.625000
  0
LINE
  5
385
100
AcDbEntity
  8
0
370
    20
100
AcDbLine
 10
79.450000
 20
233.150000
 11
106.425000
 21
233.150000
  0
LINE
  5
388
100
AcDbEntity
  8
0
370
    20
100
AcDbLine
 10
106.800000
 20
233.000000
 11
107.475000
 21
232.325000
  0
LINE
  5
38b
100
AcDbEntity
  8
0
370
    20
100
AcDbLine
 10
107.650000
 20
231.925000
 11
107.650000
 21
208.500000
  0
LINE
  5
38e
100
AcDbEntity
  8
0
370
    20
100
AcDbLine
 10
107.475000
 20
208.125000
 11
106.750000
 21
207.400000
  0
LINE
  5
391
100
AcDbEntity
  8
0
370
    20
100
AcDbLine
 10
106.375000
 20
207.225000
 11
79.500000
 21
207.225000
  0
LINE
  5
394
100
AcDbEntity
  8
0
370
    20
100
AcDbLine
 10
79.100000
 20
207.400000
 11
78.425000
 21
208.075000
  0
LINE
  5
397
100
AcDbEntity
  8
0
370
    20
100
AcDbLine
 10
78.275000
 20
208.450000
 11
78.275000
 21
231.975000
  0
LINE
  5
39a
100
AcDbEntity
  8
0
370
    20
100
AcDbLine
 10
78.425000
 20
232.375000
 11
79.050000
 21
233.000000
  0
ARC
  5
39d
100
AcDbEntity
  8
0
370
    20
100
AcDbCircle
 10
106.375000
 20
232.550000
 40
0.600000
100
AcDbArc
 50
45.437500
 51
90.000000
  0
ARC
  5
3a0
100
AcDbEntity
  8
0
370
    20
100
AcDbCircle
 10
107.050000
 20
231.900000
 40
0.575000
100
AcDbArc
 50
360.000000
 51
45.437500
  0
ARC
  5
3a3
100
AcDbEntity
  8
0
370
    20
100
AcDbCircle
 10
107.025000
 20
208.550000
 40
0.600000
100
AcDbArc
 50
315.375000
 51
360.000000
  0
ARC
  5
3a6
100
AcDbEntity
  8
0
370
    20
100
AcDbCircle
 10
106.350000
 20
207.825000
 40
0.575000
100
AcDbArc
 50
270.000000
 51
315.375000
  0
ARC
  5
3a9
100
AcDbEntity
  8
0
370
    20
100
AcDbCircle
 10
79.525000
 20
207.850000
 40
0.600000
100
AcDbArc
 50
225.437500
 51
270.000000
  0
ARC
  5
3ac
100
AcDbEntity
  8
0
370
    20
100
AcDbCircle
 10
78.850000
 20
208.500000
 40
0.575000
100
AcDbArc
 50
180.000000
 51
225.437500
  0
ARC
  5
3af
100
AcDbEntity
  8
0
370
    20
100
AcDbCircle
 10
78.850000
 20
231.975000
 40
0.575000
100
AcDbArc
 50
134.687500
 51
180.000000
  0
ARC
  5
3b2
100
AcDbEntity
  8
0
370
    20
100
AcDbCircle
 10
79.475000
 20
232.550000
 40
0.600000
100
AcDbArc
 50
90.000000
 51
134.687500
  0
LINE
  5
3b5
100
AcDbEntity
  8
0
370
    20
100
AcDbLine
 10
80.050000
 20
232.625000
 11
105.900000
 21
232.625000
  0
LINE
  5
3b8
100
AcDbEntity
  8
0
370
    20
100
AcDbLine
 10
106.275000
 20
232.500000
 11
106.925000
 21
231.850000
  0
LINE
  5
3bb
100
AcDbEntity
  8
0
370
    20
100
AcDbLine
 10
107.100000
 20
231.450000
 11
107.100000
 21
208.950000
  0
LINE
  5
3be
100
AcDbEntity
  8
0
370
    20
100
AcDbLine
 10
106.925000
 20
208.600000
 11
106.250000
 21
207.925000
  0
LINE
  5
3c1
100
AcDbEntity
  8
0
370
    20
100
AcDbLine
 10
105.900000
 20
207.750000
 11
80.075000
 21
207.750000
  0
LINE
  5
3c4
100
AcDbEntity
  8
0
370
    20
100
AcDbLine
 10
79.675000
 20
207.925000
 11
79.025000
 21
208.575000
  0
LINE
  5
3c7
100
AcDbEntity
  8
0
370
    20
100
AcDbLine
 10
78.900000
 20
208.925000
 11
78.900000
 21
231.475000
  0
LINE
  5
3ca
100
AcDbEntity
  8
0
370
    20
100
AcDbLine
 10
79.025000
 20
231.875000
 11
79.650000
 21
232.500000
  0
ARC
  5
3cd
100
AcDbEntity
  8
0
370
    20
100
AcDbCircle
 10
105.875000
 20
232.050000
 40
0.575000
100
AcDbArc
 50
45.437500
 51
90.000000
  0
ELLIPSE
  5
3d0
100
AcDbEntity
  8
0
370
    20
100
AcDbEllipse
 10
106.500000
 20
231.425000
 30
0.000000
 11
0.575000
 21
-0.000000000000000
 31
0.000000
210
0.000000
220
0.000000
230
1.000000
 40
0.956522
 41
0.000000
 42
0.813010
  0
ARC
  5
3d3
100
AcDbEntity
  8
0
370
    20
100
AcDbCircle
 10
106.500000
 20
208.975000
 40
0.575000
100
AcDbArc
 50
314.937500
 51
360.000000
  0
ARC
  5
3d6
100
AcDbEntity
  8
0
370
    20
100
AcDbCircle
 10
105.850000
 20
208.350000
 40
0.575000
100
AcDbArc
 50
270.000000
 51
314.937500
  0
ARC
  5
3d9
100
AcDbEntity
  8
0
370
    20
100
AcDbCircle
 10
80.100000
 20
208.350000
 40
0.575000
100
AcDbArc
 50
225.437500
 51
270.000000
  0
ARC
  5
3dc
100
AcDbEntity
  8
0
370
    20
100
AcDbCircle
 10
79.450000
 20
208.975000
 40
0.550000
100
AcDbArc
 50
180.000000
 51
225.437500
  0
ARC
  5
3df
100
AcDbEntity
  8
0
370
    20
100
AcDbCircle
 10
79.475000
 20
231.475000
 40
0.575000
100
AcDbArc
 50
135.125000
 51
180.000000
  0
ARC
  5
3e2
100
AcDbEntity
  8
0
370
    20
100
AcDbCircle
 10
80.075000
 20
232.050000
 40
0.575000
100
AcDbArc
 50
90.000000
 51
135.125000
  0
LWPOLYLINE
  5
3e5
100
AcDbEntity
  8
0
100
AcDbPolyline
 90
     4
 70
     1
 43
0.200000
 10
80.550000
 20
231.900000
 10
105.250000
 20
231.900000
 10
106.400000
 20
230.550000
 10
79.725000
 20
230.550000
  0
LWPOLYLINE
  5
3f0
100
AcDbEntity
  8
0
100
AcDbPolyline
 90
     4
 70
     0
 43
0.200000
 10
79.725000
 20
230.550000
 10
79.725000
 20
208.675000
 10
106.400000
 20
208.675000
 10
106.400000
 20
230.550000
  0
LINE
  5
3fb
100
AcDbEntity
  8
0
370
    20
100
AcDbLine
 10
94.625000
 20
230.550000
 11
94.625000
 21
208.675000
  0
LINE
  5
3fe
100
AcDbEntity
  8
0
370
    20
100
AcDbLine
 10
79.725000
 20
223.150000
 11
94.725000
 21
223.150000
  0
LINE
  5
401
100
AcDbEntity
  8
0
370
    20
100
AcDbLine
 10
94.625000
 20
215.350000
 11
79.725000
 21
215.350000
  0
HATCH
  5
404
330
F6
100
AcDbEntity
  8
0
100
AcDbHatch
 10
0.0
 20
0.0
 30
0.0
210
0.0
220
0.0
230
1.0
  2
SOLID
 70
     1
 71
     0
 91
     1
 92
     7
 72
     0
 73
     1
 93
     4
 10
97.525000
 20
228.275000
 10
105.150000
 20
228.275000
 10
105.150000
 20
220.775000
 10
97.525000
 20
220.775000
 97
     1
330
407
 75
     0
 76
     1
 47
0.651316
 98
     1
 10
0.0
 20
0.0
  0
LWPOLYLINE
  5
407
330
F6
100
AcDbEntity
  8
0
100
AcDbPolyline
 90
     4
 70
     1
 43
0.200000
 10
97.525000
 20
228.275000
 10
105.150000
 20
228.275000
 10
105.150000
 20
220.775000
 10
97.525000
 20
220.775000
  0
LWPOLYLINE
  5
412
100
AcDbEntity
  8
0
100
AcDbPolyline
 90
     4
 70
     1
 43
0.200000
 10
97.525000
 20
228.275000
 10
105.150000
 20
228.275000
 10
105.150000
 20
220.775000
 10
97.525000
 20
220.775000
  0
LWPOLYLINE
  5
41d
100
AcDbEntity
  8
0
100
AcDbPolyline
 90
     4
 70
     1
 43
0.200000
 10
97.525000
 20
216.800000
 10
105.150000
 20
216.800000
 10
105.150000
 20
210.350000
 10
97.525000
 20
210.350000
  0
HATCH
  5
428
330
F6
100
AcDbEntity
  8
0
100
AcDbHatch
 10
0.0
 20
0.0
 30
0.0
210
0.0
220
0.0
230
1.0
  2
SOLID
 70
     1
 71
     0
 91
     1
 92
     7
 72
     0
 73
     1
 93
     4
 10
103.900000
 20
229.725000
 10
104.825000
 20
229.725000
 10
104.825000
 20
228.775000
 10
103.900000
 20
228.775000
 97
     1
330
42b
 75
     0
 76
     1
 47
0.651316
 98
     1
 10
0.0
 20
0.0
  0
LWPOLYLINE
  5
42b
330
F6
100
AcDbEntity
  8
0
100
AcDbPolyline
 90
     4
 70
     1
 43
0.200000
 10
103.900000
 20
229.725000
 10
104.825000
 20
229.725000
 10
104.825000
 20
228.775000
 10
103.900000
 20
228.775000
  0
LWPOLYLINE
  5
436
100
AcDbEntity
  8
0
100
AcDbPolyline
 90
     4
 70
     1
 43
0.200000
 10
103.900000
 20
229.725000
 10
104.825000
 20
229.725000
 10
104.825000
 20
228.775000
 10
103.900000
 20
228.775000
  0
HATCH
  5
441
330
F6
100
AcDbEntity
  8
0
100
AcDbHatch
 10
0.0
 20
0.0
 30
0.0
210
0.0
220
0.0
230
1.0
  2
SOLID
 70
     1
 71
     0
 91
     1
 92
     7
 72
     0
 73
     1
 93
     4
 10
95.550000
 20
228.900000
 10
96.700000
 20
228.900000
 10
96.700000
 20
227.850000
 10
95.550000
 20
227.850000
 97
     1
330
444
 75
     0
 76
     1
 47
0.651316
 98
     1
 10
0.0
 20
0.0
  0
LWPOLYLINE
  5
444
330
F6
100
AcDbEntity
  8
0
100
AcDbPolyline
 90
     4
 70
     1
 43
0.200000
 10
95.550000
 20
228.900000
 10
96.700000
 20
228.900000
 10
96.700000
 20
227.850000
 10
95.550000
 20
227.850000
  0
LWPOLYLINE
  5
44f
100
AcDbEntity
  8
0
100
AcDbPolyline
 90
     4
 70
     1
 43
0.200000
 10
95.550000
 20
228.900000
 10
96.700000
 20
228.900000
 10
96.700000
 20
227.850000
 10
95.550000
 20
227.850000
  0
LINE
  5
45a
100
AcDbEntity
  8
0
370
    20
100
AcDbLine
 10
94.925000
 20
230.550000
 11
94.925000
 21
208.675000
  0
HATCH
  5
45d
330
F6
100
AcDbEntity
  8
0
100
AcDbHatch
 10
0.0
 20
0.0
 30
0.0
210
0.0
220
0.0
230
1.0
  2
SOLID
 70
     1
 71
     0
 91
     1
 92
     7
 72
     0
 73
     1
 93
     4
 10
95.550000
 20
227.450000
 10
96.700000
 20
227.450000
 10
96.700000
 20
226.400000
 10
95.550000
 20
226.400000
 97
     1
330
460
 75
     0
 76
     1
 47
0.651316
 98
     1
 10
0.0
 20
0.0
  0
LWPOLYLINE
  5
460
330
F6
100
AcDbEntity
  8
0
100
AcDbPolyline
 90
     4
 70
     1
 43
0.200000
 10
95.550000
 20
227.450000
 10
96.700000
 20
227.450000
 10
96.700000
 20
226.400000
 10
95.550000
 20
226.400000
  0
LWPOLYLINE
  5
46b
100
AcDbEntity
  8
0
100
AcDbPolyline
 90
     4
 70
     1
 43
0.200000
 10
95.550000
 20
227.450000
 10
96.700000
 20
227.450000
 10
96.700000
 20
226.400000
 10
95.550000
 20
226.400000
  0
HATCH
  5
476
330
F6
100
AcDbEntity
  8
0
100
AcDbHatch
 10
0.0
 20
0.0
 30
0.0
210
0.0
220
0.0
230
1.0
  2
SOLID
 70
     1
 71
     0
 91
     1
 92
     7
 72
     0
 73
     1
 93
     4
 10
95.550000
 20
226.000000
 10
96.700000
 20
226.000000
 10
96.700000
 20
224.950000
 10
95.550000
 20
224.950000
 97
     1
330
479
 75
     0
 76
     1
 47
0.651316
 98
     1
 10
0.0
 20
0.0
  0
LWPOLYLINE
  5
479
330
F6
100
AcDbEntity
  8
0
100
AcDbPolyline
 90
     4
 70
     1
 43
0.200000
 10
95.550000
 20
226.000000
 10
96.700000
 20
226.000000
 10
96.700000
 20
224.950000
 10
95.550000
 20
224.950000
  0
HATCH
  5
484
330
F6
100
AcDbEntity
  8
0
100
AcDbHatch
 10
0.0
 20
0.0
 30
0.0
210
0.0
220
0.0
230
1.0
  2
SOLID
 70
     1
 71
     0
 91
     1
 92
     7
 72
     0
 73
     1
 93
     4
 10
95.550000
 20
226.000000
 10
96.700000
 20
226.000000
 10
96.700000
 20
224.950000
 10
95.550000
 20
224.950000
 97
     1
330
487
 75
     0
 76
     1
 47
0.651316
 98
     1
 10
0.0
 20
0.0
  0
LWPOLYLINE
  5
487
330
F6
100
AcDbEntity
  8
0
100
AcDbPolyline
 90
     4
 70
     1
 43
0.200000
 10
95.550000
 20
226.000000
 10
96.700000
 20
226.000000
 10
96.700000
 20
224.950000
 10
95.550000
 20
224.950000
  0
LWPOLYLINE
  5
492
100
AcDbEntity
  8
0
100
AcDbPolyline
 90
     4
 70
     1
 43
0.200000
 10
95.550000
 20
226.000000
 10
96.700000
 20
226.000000
 10
96.700000
 20
224.950000
 10
95.550000
 20
224.950000
  0
HATCH
  5
49d
330
F6
100
AcDbEntity
  8
0
100
AcDbHatch
 10
0.0
 20
0.0
 30
0.0
210
0.0
220
0.0
230
1.0
  2
SOLID
 70
     1
 71
     0
 91
     1
 92
     7
 72
     0
 73
     1
 93
     4
 10
95.550000
 20
224.550000
 10
96.700000
 20
224.550000
 10
96.700000
 20
223.500000
 10
95.550000
 20
223.500000
 97
     1
330
4a0
 75
     0
 76
     1
 47
0.651316
 98
     1
 10
0.0
 20
0.0
  0
LWPOLYLINE
  5
4a0
330
F6
100
AcDbEntity
  8
0
100
AcDbPolyline
 90
     4
 70
     1
 43
0.200000
 10
95.550000
 20
224.550000
 10
96.700000
 20
224.550000
 10
96.700000
 20
223.500000
 10
95.550000
 20
223.500000
  0
HATCH
  5
4ab
330
F6
100
AcDbEntity
  8
0
100
AcDbHatch
 10
0.0
 20
0.0
 30
0.0
210
0.0
220
0.0
230
1.0
  2
SOLID
 70
     1
 71
     0
 91
     1
 92
     7
 72
     0
 73
     1
 93
     4
 10
95.550000
 20
224.550000
 10
96.700000
 20
224.550000
 10
96.700000
 20
223.500000
 10
95.550000
 20
223.500000
 97
     1
330
4ae
 75
     0
 76
     1
 47
0.651316
 98
     1
 10
0.0
 20
0.0
  0
LWPOLYLINE
  5
4ae
330
F6
100
AcDbEntity
  8
0
100
AcDbPolyline
 90
     4
 70
     1
 43
0.200000
 10
95.550000
 20
224.550000
 10
96.700000
 20
224.550000
 10
96.700000
 20
223.500000
 10
95.550000
 20
223.500000
  0
LWPOLYLINE
  5
4b9
100
AcDbEntity
  8
0
100
AcDbPolyline
 90
     4
 70
     1
 43
0.200000
 10
95.550000
 20
224.550000
 10
96.700000
 20
224.550000
 10
96.700000
 20
223.500000
 10
95.550000
 20
223.500000
  0
HATCH
  5
4c4
330
F6
100
AcDbEntity
  8
0
100
AcDbHatch
 10
0.0
 20
0.0
 30
0.0
210
0.0
220
0.0
230
1.0
  2
SOLID
 70
     1
 71
     0
 91
     1
 92
     7
 72
     0
 73
     1
 93
     4
 10
95.550000
 20
223.100000
 10
96.700000
 20
223.100000
 10
96.700000
 20
222.050000
 10
95.550000
 20
222.050000
 97
     1
330
4c7
 75
     0
 76
     1
 47
0.651316
 98
     1
 10
0.0
 20
0.0
  0
LWPOLYLINE
  5
4c7
330
F6
100
AcDbEntity
  8
0
100
AcDbPolyline
 90
     4
 70
     1
 43
0.200000
 10
95.550000
 20
223.100000
 10
96.700000
 20
223.100000
 10
96.700000
 20
222.050000
 10
95.550000
 20
222.050000
  0
HATCH
  5
4d2
330
F6
100
AcDbEntity
  8
0
100
AcDbHatch
 10
0.0
 20
0.0
 30
0.0
210
0.0
220
0.0
230
1.0
  2
SOLID
 70
     1
 71
     0
 91
     1
 92
     7
 72
     0
 73
     1
 93
     4
 10
95.550000
 20
223.100000
 10
96.700000
 20
223.100000
 10
96.700000
 20
222.050000
 10
95.550000
 20
222.050000
 97
     1
330
4d5
 75
     0
 76
     1
 47
0.651316
 98
     1
 10
0.0
 20
0.0
  0
LWPOLYLINE
  5
4d5
330
F6
100
AcDbEntity
  8
0
100
AcDbPolyline
 90
     4
 70
     1
 43
0.200000
 10
95.550000
 20
223.100000
 10
96.700000
 20
223.100000
 10
96.700000
 20
222.050000
 10
95.550000
 20
222.050000
  0
HATCH
  5
4e0
330
F6
100
AcDbEntity
  8
0
100
AcDbHatch
 10
0.0
 20
0.0
 30
0.0
210
0.0
220
0.0
230
1.0
  2
SOLID
 70
     1
 71
     0
 91
     1
 92
     7
 72
     0
 73
     1
 93
     4
 10
95.550000
 20
223.100000
 10
96.700000
 20
223.100000
 10
96.700000
 20
222.050000
 10
95.550000
 20
222.050000
 97
     1
330
4e3
 75
     0
 76
     1
 47
0.651316
 98
     1
 10
0.0
 20
0.0
  0
LWPOLYLINE
  5
4e3
330
F6
100
AcDbEntity
  8
0
100
AcDbPolyline
 90
     4
 70
     1
 43
0.200000
 10
95.550000
 20
223.100000
 10
96.700000
 20
223.100000
 10
96.700000
 20
222.050000
 10
95.550000
 20
222.050000
  0
LWPOLYLINE
  5
4ee
100
AcDbEntity
  8
0
100
AcDbPolyline
 90
     4
 70
     1
 43
0.200000
 10
95.550000
 20
223.100000
 10
96.700000
 20
223.100000
 10
96.700000
 20
222.050000
 10
95.550000
 20
222.050000
  0
HATCH
  5
4f9
330
F6
100
AcDbEntity
  8
0
100
AcDbHatch
 10
0.0
 20
0.0
 30
0.0
210
0.0
220
0.0
230
1.0
  2
SOLID
 70
     1
 71
     0
 91
     1
 92
     7
 72
     0
 73
     1
 93
     4
 10
95.550000
 20
218.300000
 10
96.700000
 20
218.300000
 10
96.700000
 20
217.250000
 10
95.550000
 20
217.250000
 97
     1
330
4fc
 75
     0
 76
     1
 47
0.651316
 98
     1
 10
0.0
 20
0.0
  0
LWPOLYLINE
  5
4fc
330
F6
100
AcDbEntity
  8
0
100
AcDbPolyline
 90
     4
 70
     1
 43
0.200000
 10
95.550000
 20
218.300000
 10
96.700000
 20
218.300000
 10
96.700000
 20
217.250000
 10
95.550000
 20
217.250000
  0
LWPOLYLINE
  5
507
100
AcDbEntity
  8
0
100
AcDbPolyline
 90
     4
 70
     1
 43
0.200000
 10
95.550000
 20
218.300000
 10
96.700000
 20
218.300000
 10
96.700000
 20
217.250000
 10
95.550000
 20
217.250000
  0
HATCH
  5
512
330
F6
100
AcDbEntity
  8
0
100
AcDbHatch
 10
0.0
 20
0.0
 30
0.0
210
0.0
220
0.0
230
1.0
  2
SOLID
 70
     1
 71
     0
 91
     1
 92
     7
 72
     0
 73
     1
 93
     4
 10
95.550000
 20
214.850000
 10
96.700000
 20
214.850000
 10
96.700000
 20
213.800000
 10
95.550000
 20
213.800000
 97
     1
330
515
 75
     0
 76
     1
 47
0.651316
 98
     1
 10
0.0
 20
0.0
  0
LWPOLYLINE
  5
515
330
F6
100
AcDbEntity
  8
0
100
AcDbPolyline
 90
     4
 70
     1
 43
0.200000
 10
95.550000
 20
214.850000
 10
96.700000
 20
214.850000
 10
96.700000
 20
213.800000
 10
95.550000
 20
213.800000
  0
LWPOLYLINE
  5
520
100
AcDbEntity
  8
0
100
AcDbPolyline
 90
     4
 70
     1
 43
0.200000
 10
95.550000
 20
214.850000
 10
96.700000
 20
214.850000
 10
96.700000
 20
213.800000
 10
95.550000
 20
213.800000
  0
HATCH
  5
52b
330
F6
100
AcDbEntity
  8
0
100
AcDbHatch
 10
0.0
 20
0.0
 30
0.0
210
0.0
220
0.0
230
1.0
  2
SOLID
 70
     1
 71
     0
 91
     1
 92
     7
 72
     0
 73
     1
 93
     4
 10
95.550000
 20
213.200000
 10
96.700000
 20
213.200000
 10
96.700000
 20
212.150000
 10
95.550000
 20
212.150000
 97
     1
330
52e
 75
     0
 76
     1
 47
0.651316
 98
     1
 10
0.0
 20
0.0
  0
LWPOLYLINE
  5
52e
330
F6
100
AcDbEntity
  8
0
100
AcDbPolyline
 90
     4
 70
     1
 43
0.200000
 10
95.550000
 20
213.200000
 10
96.700000
 20
213.200000
 10
96.700000
 20
212.150000
 10
95.550000
 20
212.150000
  0
LWPOLYLINE
  5
539
100
AcDbEntity
  8
0
100
AcDbPolyline
 90
     4
 70
     1
 43
0.200000
 10
95.550000
 20
213.200000
 10
96.700000
 20
213.200000
 10
96.700000
 20
212.150000
 10
95.550000
 20
212.150000
  0
HATCH
  5
544
330
F6
100
AcDbEntity
  8
0
100
AcDbHatch
 10
0.0
 20
0.0
 30
0.0
210
0.0
220
0.0
230
1.0
  2
SOLID
 70
     1
 71
     0
 91
     1
 92
     7
 72
     0
 73
     1
 93
     4
 10
95.550000
 20
211.625000
 10
96.700000
 20
211.625000
 10
96.700000
 20
210.575000
 10
95.550000
 20
210.575000
 97
     1
330
547
 75
     0
 76
     1
 47
0.651316
 98
     1
 10
0.0
 20
0.0
  0
LWPOLYLINE
  5
547
330
F6
100
AcDbEntity
  8
0
100
AcDbPolyline
 90
     4
 70
     1
 43
0.200000
 10
95.550000
 20
211.625000
 10
96.700000
 20
211.625000
 10
96.700000
 20
210.575000
 10
95.550000
 20
210.575000
  0
HATCH
  5
552
330
F6
100
AcDbEntity
  8
0
100
AcDbHatch
 10
0.0
 20
0.0
 30
0.0
210
0.0
220
0.0
230
1.0
  2
SOLID
 70
     1
 71
     0
 91
     1
 92
     7
 72
     0
 73
     1
 93
     4
 10
95.550000
 20
211.625000
 10
96.700000
 20
211.625000
 10
96.700000
 20
210.575000
 10
95.550000
 20
210.575000
 97
     1
330
555
 75
     0
 76
     1
 47
0.651316
 98
     1
 10
0.0
 20
0.0
  0
LWPOLYLINE
  5
555
330
F6
100
AcDbEntity
  8
0
100
AcDbPolyline
 90
     4
 70
     1
 43
0.200000
 10
95.550000
 20
211.625000
 10
96.700000
 20
211.625000
 10
96.700000
 20
210.575000
 10
95.550000
 20
210.575000
  0
LWPOLYLINE
  5
560
100
AcDbEntity
  8
0
100
AcDbPolyline
 90
     4
 70
     1
 43
0.200000
 10
95.550000
 20
211.625000
 10
96.700000
 20
211.625000
 10
96.700000
 20
210.575000
 10
95.550000
 20
210.575000
  0
HATCH
  5
56b
330
F6
100
AcDbEntity
  8
0
100
AcDbHatch
 10
0.0
 20
0.0
 30
0.0
210
0.0
220
0.0
230
1.0
  2
SOLID
 70
     1
 71
     0
 91
     1
 92
     7
 72
     0
 73
     1
 93
     4
 10
97.850000
 20
216.500000
 10
104.750000
 20
216.500000
 10
104.750000
 20
210.650000
 10
97.850000
 20
210.650000
 97
     1
330
56e
 75
     0
 76
     1
 47
0.651316
 98
     1
 10
0.0
 20
0.0
  0
LWPOLYLINE
  5
56e
330
F6
100
AcDbEntity
  8
0
100
AcDbPolyline
 90
     4
 70
     1
 43
0.200000
 10
97.850000
 20
216.500000
 10
104.750000
 20
216.500000
 10
104.750000
 20
210.650000
 10
97.850000
 20
210.650000
  0
LWPOLYLINE
  5
579
100
AcDbEntity
  8
0
100
AcDbPolyline
 90
     4
 70
     1
 43
0.200000
 10
97.850000
 20
216.500000
 10
104.750000
 20
216.500000
 10
104.750000
 20
210.650000
 10
97.850000
 20
210.650000
  0
LINE
  5
584
100
AcDbEntity
  8
0
370
    20
100
AcDbLine
 10
101.300000
 20
210.650000
 11
101.300000
 21
216.500000
  0
LINE
  5
587
100
AcDbEntity
  8
0
370
    20
100
AcDbLine
 10
104.675000
 20
213.550000
 11
97.850000
 21
213.575000
  0
LINE
  5
58a
100
AcDbEntity
  8
0
370
    20
100
AcDbLine
 10
104.675000
 20
214.925000
 11
97.850000
 21
214.950000
  0
LINE
  5
58d
100
AcDbEntity
  8
0
370
    20
100
AcDbLine
 10
104.675000
 20
212.050000
 11
97.850000
 21
212.075000
  0
LINE
  5
590
100
AcDbEntity
  8
0
370
    20
100
AcDbLine
 10
99.725000
 20
210.650000
 11
99.725000
 21
216.500000
  0
LINE
  5
593
100
AcDbEntity
  8
0
370
    20
100
AcDbLine
 10
103.100000
 20
210.650000
 11
103.100000
 21
216.500000
  0
LWPOLYLINE
  5
596
100
AcDbEntity
  8
0
100
AcDbPolyline
 90
     4
 70
     1
 43
0.200000
 10
80.125000
 20
214.325000
 10
80.600000
 20
214.325000
 10
80.600000
 20
209.500000
 10
80.125000
 20
209.500000
  0
LWPOLYLINE
  5
5a1
100
AcDbEntity
  8
0
100
AcDbPolyline
 90
     4
 70
     1
 43
0.200000
 10
93.725000
 20
214.325000
 10
94.200000
 20
214.325000
 10
94.200000
 20
209.500000
 10
93.725000
 20
209.500000
  0
LWPOLYLINE
  5
5ac
100
AcDbEntity
  8
0
100
AcDbPolyline
 90
     4
 70
     1
 43
0.200000
 10
80.125000
 20
221.500000
 10
80.600000
 20
221.500000
 10
80.600000
 20
216.675000
 10
80.125000
 20
216.675000
  0
LWPOLYLINE
  5
5b7
100
AcDbEntity
  8
0
100
AcDbPolyline
 90
     4
 70
     1
 43
0.200000
 10
93.725000
 20
221.500000
 10
94.200000
 20
221.500000
 10
94.200000
 20
216.675000
 10
93.725000
 20
216.675000
  0
LWPOLYLINE
  5
5c2
100
AcDbEntity
  8
0
100
AcDbPolyline
 90
     4
 70
     1
 43
0.200000
 10
80.125000
 20
229.150000
 10
80.600000
 20
229.150000
 10
80.600000
 20
224.325000
 10
80.125000
 20
224.325000
  0
LWPOLYLINE
  5
5cd
100
AcDbEntity
  8
0
100
AcDbPolyline
 90
     4
 70
     1
 43
0.200000
 10
93.725000
 20
229.150000
 10
94.200000
 20
229.150000
 10
94.200000
 20
224.325000
 10
93.725000
 20
224.325000
  0
HATCH
  5
5d8
330
F6
100
AcDbEntity
  8
0
100
AcDbHatch
 10
0.0
 20
0.0
 30
0.0
210
0.0
220
0.0
230
1.0
  2
SOLID
 70
     1
 71
     0
 91
     1
 92
     7
 72
     0
 73
     1
 93
     4
 10
81.625000
 20
213.625000
 10
93.100000
 20
213.625000
 10
93.100000
 20
210.350000
 10
81.625000
 20
210.350000
 97
     1
330
5db
 75
     0
 76
     1
 47
0.651316
 98
     1
 10
0.0
 20
0.0
  0
LWPOLYLINE
  5
5db
330
F6
100
AcDbEntity
  8
0
100
AcDbPolyline
 90
     4
 70
     1
 43
0.200000
 10
81.625000
 20
213.625000
 10
93.100000
 20
213.625000
 10
93.100000
 20
210.350000
 10
81.625000
 20
210.350000
  0
LWPOLYLINE
  5
5e6
100
AcDbEntity
  8
0
100
AcDbPolyline
 90
     4
 70
     1
 43
0.200000
 10
81.625000
 20
213.625000
 10
93.100000
 20
213.625000
 10
93.100000
 20
210.350000
 10
81.625000
 20
210.350000
  0
CIRCLE
  5
5f1
100
AcDbEntity
  8
0
370
    20
100
AcDbCircle
 10
81.150000
 20
210.575000
 40
0.350000
  0
LWPOLYLINE
  5
5f4
100
AcDbEntity
  8
0
100
AcDbPolyline
 90
     4
 70
     1
 43
0.200000
 10
81.850000
 20
221.200000
 10
92.475000
 20
221.200000
 10
92.475000
 20
216.525000
 10
81.850000
 20
216.525000
  0
HATCH
  5
5ff
330
F6
100
AcDbEntity
  8
0
100
AcDbHatch
 10
0.0
 20
0.0
 30
0.0
210
0.0
220
0.0
230
1.0
  2
SOLID
 70
     1
 71
     0
 91
     1
 92
     7
 72
     0
 73
     1
 93
     4
 10
85.300000
 20
217.850000
 10
89.425000
 20
217.850000
 10
89.425000
 20
217.075000
 10
85.300000
 20
217.075000
 97
     1
330
602
 75
     0
 76
     1
 47
0.651316
 98
     1
 10
0.0
 20
0.0
  0
LWPOLYLINE
  5
602
330
F6
100
AcDbEntity
  8
0
100
AcDbPolyline
 90
     4
 70
     1
 43
0.200000
 10
85.300000
 20
217.850000
 10
89.425000
 20
217.850000
 10
89.425000
 20
217.075000
 10
85.300000
 20
217.075000
  0
LWPOLYLINE
  5
60d
100
AcDbEntity
  8
0
100
AcDbPolyline
 90
     4
 70
     1
 43
0.200000
 10
85.300000
 20
217.850000
 10
89.425000
 20
217.850000
 10
89.425000
 20
217.075000
 10
85.300000
 20
217.075000
  0
LINE
  5
618
100
AcDbEntity
  8
0
370
    20
100
AcDbLine
 10
81.850000
 20
217.225000
 11
85.225000
 21
217.225000
  0
LINE
  5
61b
100
AcDbEntity
  8
0
370
    20
100
AcDbLine
 10
89.525000
 20
217.225000
 11
92.475000
 21
217.225000
  0
LINE
  5
61e
100
AcDbEntity
  8
0
370
    20
100
AcDbLine
 10
83.500000
 20
221.200000
 11
83.500000
 21
216.450000
  0
LINE
  5
621
100
AcDbEntity
  8
0
370
    20
100
AcDbLine
 10
90.925000
 20
221.200000
 11
90.925000
 21
216.450000
  0
HATCH
  5
624
330
F6
100
AcDbEntity
  8
0
100
AcDbHatch
 10
0.0
 20
0.0
 30
0.0
210
0.0
220
0.0
230
1.0
  2
SOLID
 70
     1
 71
     0
 91
     1
 92
     7
 72
     0
 73
     1
 93
     4
 10
98.025000
 20
227.775000
 10
104.675000
 20
227.775000
 10
104.675000
 20
221.125000
 10
98.025000
 20
221.125000
 97
     1
330
627
 75
     0
 76
     1
 47
0.651316
 98
     1
 10
0.0
 20
0.0
  0
LWPOLYLINE
  5
627
330
F6
100
AcDbEntity
  8
0
100
AcDbPolyline
 90
     4
 70
     1
 43
0.200000
 10
98.025000
 20
227.775000
 10
104.675000
 20
227.775000
 10
104.675000
 20
221.125000
 10
98.025000
 20
221.125000
  0
HATCH
  5
632
330
F6
100
AcDbEntity
  8
0
100
AcDbHatch
 10
0.0
 20
0.0
 30
0.0
210
0.0
220
0.0
230
1.0
  2
SOLID
 70
     1
 71
     0
 91
     1
 92
     7
 72
     0
 73
     1
 93
     4
 10
98.025000
 20
227.775000
 10
104.675000
 20
227.775000
 10
104.675000
 20
221.125000
 10
98.025000
 20
221.125000
 97
     1
330
635
 75
     0
 76
     1
 47
0.651316
 98
     1
 10
0.0
 20
0.0
  0
LWPOLYLINE
  5
635
330
F6
100
AcDbEntity
  8
0
100
AcDbPolyline
 90
     4
 70
     1
 43
0.200000
 10
98.025000
 20
227.775000
 10
104.675000
 20
227.775000
 10
104.675000
 20
221.125000
 10
98.025000
 20
221.125000
  0
LWPOLYLINE
  5
640
100
AcDbEntity
  8
0
100
AcDbPolyline
 90
     4
 70
     1
 43
0.200000
 10
98.025000
 20
227.775000
 10
104.675000
 20
227.775000
 10
104.675000
 20
221.125000
 10
98.025000
 20
221.125000
  0
HATCH
  5
64b
330
F6
100
AcDbEntity
  8
0
100
AcDbHatch
 10
0.0
 20
0.0
 30
0.0
210
0.0
220
0.0
230
1.0
  2
SOLID
 70
     1
 71
     0
 91
     1
 92
     7
 72
     0
 73
     1
 93
    31
 10
81.375000
 20
231.075000
 10
81.375000
 20
231.025000
 10
81.350000
 20
230.975000
 10
81.300000
 20
230.925000
 10
81.225000
 20
230.900000
 10
81.175000
 20
230.875000
 10
81.075000
 20
230.850000
 10
80.825000
 20
230.850000
 10
80.600000
 20
230.925000
 10
80.550000
 20
230.950000
 10
80.500000
 20
231.000000
 10
80.500000
 20
231.075000
 10
80.500000
 20
231.125000
 10
80.575000
 20
231.325000
 10
80.525000
 20
231.275000
 10
80.500000
 20
231.225000
 10
80.500000
 20
231.125000
 10
80.550000
 20
231.025000
 10
80.600000
 20
231.000000
 10
80.675000
 20
230.950000
 10
80.750000
 20
230.925000
 10
81.100000
 20
230.925000
 10
81.250000
 20
230.975000
 10
81.300000
 20
231.025000
 10
81.350000
 20
231.050000
 10
81.350000
 20
231.100000
 10
81.375000
 20
231.100000
 10
81.375000
 20
231.200000
 10
81.325000
 20
231.300000
 10
81.275000
 20
231.325000
 10
81.350000
 20
231.100000
 97
     1
330
64e
 75
     0
 76
     1
 47
0.651316
 98
     1
 10
0.0
 20
0.0
  0
LWPOLYLINE
  5
64e
330
F6
100
AcDbEntity
  8
0
100
AcDbPolyline
 90
    32
 70
     0
 43
0.200000
 10
81.375000
 20
231.075000
 10
81.375000
 20
231.025000
 10
81.350000
 20
230.975000
 10
81.300000
 20
230.925000
 10
81.225000
 20
230.900000
 10
81.175000
 20
230.875000
 10
81.075000
 20
230.850000
 10
80.825000
 20
230.850000
 10
80.600000
 20
230.925000
 10
80.550000
 20
230.950000
 10
80.500000
 20
231.000000
 10
80.500000
 20
231.075000
 10
80.500000
 20
231.125000
 10
80.575000
 20
231.325000
 10
80.525000
 20
231.275000
 10
80.500000
 20
231.225000
 10
80.500000
 20
231.125000
 10
80.550000
 20
231.025000
 10
80.600000
 20
231.000000
 10
80.675000
 20
230.950000
 10
80.750000
 20
230.925000
 10
81.100000
 20
230.925000
 10
81.250000
 20
230.975000
 10
81.300000
 20
231.025000
 10
81.350000
 20
231.050000
 10
81.350000
 20
231.100000
 10
81.375000
 20
231.100000
 10
81.375000
 20
231.200000
 10
81.325000
 20
231.300000
 10
81.275000
 20
231.325000
 10
81.350000
 20
231.100000
 10
81.375000
 20
231.075000
  0
ELLIPSE
  5
691
100
AcDbEntity
  8
0
370
    20
100
AcDbEllipse
 10
80.950000
 20
231.075000
 30
0.000000
 11
0.450000
 21
-0.000000000000000
 31
0.000000
210
0.000000
220
0.000000
230
1.000000
 40
0.555556
 41
3.215224
 42
6.209554
  0
ELLIPSE
  5
694
100
AcDbEntity
  8
0
370
    20
100
AcDbEllipse
 10
80.950000
 20
231.150000
 30
0.000000
 11
0.450000
 21
-0.000000000000000
 31
0.000000
210
0.000000
220
0.000000
230
1.000000
 40
0.555556
 41
2.524932
 42
0.693359
  0
ELLIPSE
  5
697
100
AcDbEntity
  8
0
370
    20
100
AcDbEllipse
 10
80.950000
 20
231.350000
 30
0.000000
 11
0.325000
 21
-0.0000000000000000
 31
0.000000
210
0.000000
220
0.000000
230
1.000000
 40
0.769231
 41
0.000000
 42
6.283185
  0
ELLIPSE
  5
69a
100
AcDbEntity
  8
0
370
    20
100
AcDbEllipse
 10
82.575000
 20
231.100000
 30
0.000000
 11
0.600000
 21
-0.000000000000000
 31
0.000000
210
0.000000
220
0.000000
230
1.000000
 40
0.458333
 41
3.230564
 42
6.194214
  0
ELLIPSE
  5
69d
100
AcDbEntity
  8
0
370
    20
100
AcDbEllipse
 10
82.575000
 20
231.200000
 30
0.000000
 11
0.600000
 21
-0.000000000000000
 31
0.000000
210
0.000000
220
0.000000
230
1.000000
 40
0.458333
 41
2.432894
 42
0.788466
  0
ELLIPSE
  5
6a0
100
AcDbEntity
  8
0
370
    20
100
AcDbEllipse
 10
82.575000
 20
231.450000
 30
0.000000
 11
0.450000
 21
-0.000000000000000
 31
0.000000
210
0.000000
220
0.000000
230
1.000000
 40
0.555556
 41
0.000000
 42
6.283185
  0
ELLIPSE
  5
6a3
100
AcDbEntity
  8
0
370
    20
100
AcDbEllipse
 10
84.975000
 20
231.100000
 30
0.000000
 11
0.600000
 21
-0.000000000000000
 31
0.000000
210
0.000000
220
0.000000
230
1.000000
 40
0.458333
 41
3.230564
 42
6.194214
  0
ELLIPSE
  5
6a6
100
AcDbEntity
  8
0
370
    20
100
AcDbEllipse
 10
84.975000
 20
231.200000
 30
0.000000
 11
0.600000
 21
-0.000000000000000
 31
0.000000
210
0.000000
220
0.000000
230
1.000000
 40
0.458333
 41
2.432894
 42
0.788466
  0
ELLIPSE
  5
6a9
100
AcDbEntity
  8
0
370
    20
100
AcDbEllipse
 10
84.975000
 20
231.450000
 30
0.000000
 11
0.450000
 21
-0.000000000000000
 31
0.000000
210
0.000000
220
0.000000
230
1.000000
 40
0.555556
 41
0.000000
 42
6.283185
  0
ELLIPSE
  5
6ac
100
AcDbEntity
  8
0
370
    20
100
AcDbEllipse
 10
87.425000
 20
231.100000
 30
0.000000
 11
0.600000
 21
-0.000000000000000
 31
0.000000
210
0.000000
220
0.000000
230
1.000000
 40
0.458333
 41
3.230564
 42
6.194214
  0
ELLIPSE
  5
6af
100
AcDbEntity
  8
0
370
    20
100
AcDbEllipse
 10
87.425000
 20
231.200000
 30
0.000000
 11
0.600000
 21
-0.000000000000000
 31
0.000000
210
0.000000
220
0.000000
230
1.000000
 40
0.458333
 41
2.432894
 42
0.788466
  0
ELLIPSE
  5
6b2
100
AcDbEntity
  8
0
370
    20
100
AcDbEllipse
 10
87.425000
 20
231.450000
 30
0.000000
 11
0.450000
 21
-0.000000000000000
 31
0.000000
210
0.000000
220
0.000000
230
1.000000
 40
0.555556
 41
0.000000
 42
6.283185
  0
ELLIPSE
  5
6b5
100
AcDbEntity
  8
0
370
    20
100
AcDbEllipse
 10
89.850000
 20
231.100000
 30
0.000000
 11
0.600000
 21
-0.000000000000000
 31
0.000000
210
0.000000
220
0.000000
230
1.000000
 40
0.458333
 41
3.230564
 42
6.194214
  0
ELLIPSE
  5
6b8
100
AcDbEntity
  8
0
370
    20
100
AcDbEllipse
 10
89.850000
 20
231.200000
 30
0.000000
 11
0.600000
 21
-0.000000000000000
 31
0.000000
210
0.000000
220
0.000000
230
1.000000
 40
0.458333
 41
2.432894
 42
0.788466
  0
ELLIPSE
  5
6bb
100
AcDbEntity
  8
0
370
    20
100
AcDbEllipse
 10
89.850000
 20
231.450000
 30
0.000000
 11
0.450000
 21
-0.000000000000000
 31
0.000000
210
0.000000
220
0.000000
230
1.000000
 40
0.555556
 41
0.000000
 42
6.283185
  0
ELLIPSE
  5
6be
100
AcDbEntity
  8
0
370
    20
100
AcDbEllipse
 10
102.350000
 20
231.100000
 30
0.000000
 11
1.775000
 21
-0.000000000000000
 31
0.000000
210
0.000000
220
0.000000
230
1.000000
 40
0.140845
 41
3.233632
 42
6.191146
  0
ELLIPSE
  5
6c1
100
AcDbEntity
  8
0
370
    20
100
AcDbEllipse
 10
102.350000
 20
231.200000
 30
0.000000
 11
1.775000
 21
-0.000000000000000
 31
0.000000
210
0.000000
220
0.000000
230
1.000000
 40
0.140845
 41
2.396078
 42
0.831418
  0
ELLIPSE
  5
6c4
100
AcDbEntity
  8
0
370
    20
100
AcDbEllipse
 10
102.350000
 20
231.450000
 30
0.000000
 11
1.600000
 21
-0.000000000000000
 31
0.000000
210
0.000000
220
0.000000
230
1.000000
 40
0.156250
 41
0.000000
 42
6.283185
  0
ELLIPSE
  5
6c7
100
AcDbEntity
  8
0
370
    20
100
AcDbEllipse
 10
98.075000
 20
231.100000
 30
0.000000
 11
1.200000
 21
-0.000000000000000
 31
0.000000
210
0.000000
220
0.000000
230
1.000000
 40
0.229167
 41
3.230564
 42
6.194214
  0
ELLIPSE
  5
6ca
100
AcDbEntity
  8
0
370
    20
100
AcDbEllipse
 10
98.075000
 20
231.200000
 30
0.000000
 11
1.200000
 21
-0.000000000000000
 31
0.000000
210
0.000000
220
0.000000
230
1.000000
 40
0.229167
 41
2.445165
 42
0.794602
  0
ELLIPSE
  5
6cd
100
AcDbEntity
  8
0
370
    20
100
AcDbEllipse
 10
98.075000
 20
231.450000
 30
0.000000
 11
1.125000
 21
-0.000000000000000
 31
0.000000
210
0.000000
220
0.000000
230
1.000000
 40
0.222222
 41
0.000000
 42
6.283185
  0
ELLIPSE
  5
6d0
100
AcDbEntity
  8
0
370
    20
100
AcDbEllipse
 10
94.650000
 20
231.100000
 30
0.000000
 11
0.600000
 21
-0.000000000000000
 31
0.000000
210
0.000000
220
0.000000
230
1.000000
 40
0.458333
 41
3.230564
 42
6.194214
  0
ELLIPSE
  5
6d3
100
AcDbEntity
  8
0
370
    20
100
AcDbEllipse
 10
94.650000
 20
231.200000
 30
0.000000
 11
0.600000
 21
-0.000000000000000
 31
0.000000
210
0.000000
220
0.000000
230
1.000000
 40
0.458333
 41
2.432894
 42
0.788466
  0
ELLIPSE
  5
6d6
100
AcDbEntity
  8
0
370
    20
100
AcDbEllipse
 10
94.650000
 20
231.450000
 30
0.000000
 11
0.450000
 21
-0.000000000000000
 31
0.000000
210
0.000000
220
0.000000
230
1.000000
 40
0.555556
 41
0.000000
 42
6.283185
  0
ELLIPSE
  5
6d9
100
AcDbEntity
  8
0
370
    20
100
AcDbEllipse
 10
92.275000
 20
231.100000
 30
0.000000
 11
0.600000
 21
-0.000000000000000
 31
0.000000
210
0.000000
220
0.000000
230
1.000000
 40
0.458333
 41
3.230564
 42
6.194214
  0
ELLIPSE
  5
6dc
100
AcDbEntity
  8
0
370
    20
100
AcDbEllipse
 10
92.275000
 20
231.200000
 30
0.000000
 11
0.600000
 21
-0.000000000000000
 31
0.000000
210
0.000000
220
0.000000
230
1.000000
 40
0.458333
 41
2.432894
 42
0.788466
  0
ELLIPSE
  5
6df
100
AcDbEntity
  8
0
370
    20
100
AcDbEllipse
 10
92.275000
 20
231.450000
 30
0.000000
 11
0.450000
 21
-0.000000000000000
 31
0.000000
210
0.000000
220
0.000000
230
1.000000
 40
0.555556
 41
0.000000
 42
6.283185
  0
MTEXT
  5
6e2
100
AcDbEntity
  8
0
100
AcDbMText
 10
77.025000
 20
204.575000
 40
2.662500
 41
60.705000
 71
     1
 72
     5
  1
\fＭＳ ゴシック|b0|i0|c128|p49;\T1.0200;記録器(シ　オロカ　ー3030)
 44
0.908099
 73
     1
  7
BIGFONT
  0
MTEXT
  5
6e5
100
AcDbEntity
  8
0
100
AcDbMText
 10
111.400000
 20
220.175000
 40
2.662500
 41
38.340000
 71
     1
 72
     5
  1
\fＭＳ ゴシック|b0|i0|c128|p49;\T1.0200;電源(ハ　ッテリー)
 44
0.908099
 73
     1
  7
BIGFONT
  0
MTEXT
  5
6e8
100
AcDbEntity
  8
0
100
AcDbMText
 10
65.300000
 20
194.900000
 40
1.612500
 41
34.830000
 71
     1
 72
     5
  1
\fＭＳ ゴシック|b0|i0|c128|p49;\H1.6125;\T1.0200;ベースコンクリー\T1.2422;ト
 44
0.985857
 73
     1
  7
BIGFONT
  0
HATCH
  5
6eb
330
F6
100
AcDbEntity
  8
0
100
AcDbHatch
 10
0.0
 20
0.0
 30
0.0
210
0.0
220
0.0
230
1.0
  2
SOLID
 70
     1
 71
     0
 91
     1
 92
     7
 72
     0
 73
     1
 93
     4
 10
39.600000
 20
187.550000
 10
44.225000
 20
187.550000
 10
44.150000
 20
180.825000
 10
39.600000
 20
180.750000
 97
     1
330
6ee
 75
     0
 76
     1
 47
0.651316
 98
     1
 10
0.0
 20
0.0
  0
LWPOLYLINE
  5
6ee
330
F6
100
AcDbEntity
  8
0
100
AcDbPolyline
 90
     4
 70
     1
 43
0.200000
 10
39.600000
 20
187.550000
 10
44.225000
 20
187.550000
 10
44.150000
 20
180.825000
 10
39.600000
 20
180.750000
  0
HATCH
  5
6f9
330
F6
100
AcDbEntity
  8
0
100
AcDbHatch
 10
0.0
 20
0.0
 30
0.0
210
0.0
220
0.0
230
1.0
  2
SOLID
 70
     1
 71
     0
 91
     1
 92
     7
 72
     0
 73
     1
 93
     5
 10
49.450000
 20
187.550000
 10
53.975000
 20
187.550000
 10
53.975000
 20
180.825000
 10
49.450000
 20
180.675000
 10
49.525000
 20
187.475000
 97
     1
330
6fc
 75
     0
 76
     1
 47
0.651316
 98
     1
 10
0.0
 20
0.0
  0
LWPOLYLINE
  5
6fc
330
F6
100
AcDbEntity
  8
0
100
AcDbPolyline
 90
     5
 70
     1
 43
0.200000
 10
49.450000
 20
187.550000
 10
53.975000
 20
187.550000
 10
53.975000
 20
180.825000
 10
49.450000
 20
180.675000
 10
49.525000
 20
187.475000
  0
MTEXT
  5
709
100
AcDbEntity
  8
0
100
AcDbMText
 10
58.750000
 20
158.625000
 40
1.612500
 41
30.960000
 71
     1
 72
     5
  1
\fＭＳ ゴシック|b0|i0|c128|p49;\H1.6125;\T1.0200;傾斜計ケーシン\T1.2422;グ
 44
0.985857
 73
     1
  7
BIGFONT
  0
LINE
  5
70c
100
AcDbEntity
  8
0
370
    20
100
AcDbLine
 10
64.375000
 20
191.300000
 11
54.700000
 21
185.350000
  0
LWPOLYLINE
  5
70f
100
AcDbEntity
  8
0
100
AcDbPolyline
 90
     3
 70
     0
 43
0.200000
 10
56.450000
 20
187.800000
 10
54.700000
 20
185.350000
 10
57.650000
 20
185.825000
  0
LINE
  5
718
100
AcDbEntity
  8
0
370
    20
100
AcDbLine
 10
57.825000
 20
154.725000
 11
49.375000
 21
147.850000
  0
LWPOLYLINE
  5
71b
100
AcDbEntity
  8
0
100
AcDbPolyline
 90
     3
 70
     0
 43
0.200000
 10
50.800000
 20
150.500000
 10
49.375000
 20
147.850000
 10
52.250000
 20
148.725000
  0
MTEXT
  5
724
100
AcDbEntity
  8
0
100
AcDbMText
 10
15.300000
 20
238.025000
 40
1.612500
 41
30.960000
 71
     1
 72
     5
  1
\fＭＳ ゴシック|b0|i0|c128|p49;\H1.6125;\T1.0200;ケーブルホルダ\T1.2422;ー
 44
0.985857
 73
     1
  7
BIGFONT
  0
LINE
  5
727
100
AcDbEntity
  8
0
370
    20
100
AcDbLine
 10
31.875000
 20
233.800000
 11
42.200000
 21
223.800000
  0
LWPOLYLINE
  5
72a
100
AcDbEntity
  8
0
100
AcDbPolyline
 90
     3
 70
     0
 43
0.200000
 10
39.400000
 20
224.925000
 10
42.200000
 20
223.800000
 10
41.000000
 20
226.575000
  0
HATCH
  5
733
330
F6
100
AcDbEntity
  8
0
100
AcDbHatch
 10
0.0
 20
0.0
 30
0.0
210
0.0
220
0.0
230
1.0
  2
SOLID
 70
     1
 71
     0
 91
     1
 92
     7
 72
     0
 73
     1
 93
     4
 10
45.150000
 20
75.975000
 10
48.600000
 20
75.900000
 10
48.600000
 20
72.950000
 10
45.075000
 20
72.950000
 97
     1
330
736
 75
     0
 76
     1
 47
0.651316
 98
     1
 10
0.0
 20
0.0
  0
LWPOLYLINE
  5
736
330
F6
100
AcDbEntity
  8
0
100
AcDbPolyline
 90
     4
 70
     1
 43
0.200000
 10
45.150000
 20
75.975000
 10
48.600000
 20
75.900000
 10
48.600000
 20
72.950000
 10
45.075000
 20
72.950000
  0
MTEXT
  5
741
100
AcDbEntity
  8
0
100
AcDbMText
 10
25.925000
 20
65.500000
 40
1.612500
 41
27.090000
 71
     1
 72
     5
  1
\fＭＳ ゴシック|b0|i0|c128|p49;\H1.6125;\T1.0200;ボトムキャッ\T1.2422;プ
 44
0.985857
 73
     1
  7
BIGFONT
  0
LINE
  5
744
100
AcDbEntity
  8
0
370
    20
100
AcDbLine
 10
42.200000
 20
65.050000
 11
46.875000
 21
72.550000
  0
LWPOLYLINE
  5
747
100
AcDbEntity
  8
0
100
AcDbPolyline
 90
     3
 70
     0
 43
0.200000
 10
46.350000
 20
69.600000
 10
46.875000
 20
72.550000
 10
44.425000
 20
70.825000
  0
MTEXT
  5
750
100
AcDbEntity
  8
0
100
AcDbMText
 10
29.375000
 20
103.025000
 40
1.612500
 41
15.480000
 71
     1
 72
     5
  1
\fＭＳ ゴシック|b0|i0|c128|p49;\H1.6125;\T1.0200;プロー\T1.2422;ブ
 44
0.985857
 73
     1
  7
BIGFONT
  0
LINE
  5
753
100
AcDbEntity
  8
0
370
    20
100
AcDbLine
 10
37.825000
 20
99.725000
 11
46.575000
 21
94.100000
  0
LWPOLYLINE
  5
756
100
AcDbEntity
  8
0
100
AcDbPolyline
 90
     3
 70
     0
 43
0.200000
 10
43.600000
 20
94.650000
 10
46.575000
 20
94.100000
 10
44.850000
 20
96.575000
  0
MTEXT
  5
75f
100
AcDbEntity
  8
0
100
AcDbMText
 10
54.675000
 20
233.950000
 40
1.612500
 41
15.480000
 71
     1
 72
     5
  1
\fＭＳ ゴシック|b0|i0|c128|p49;\H1.6125;\T1.0200;ケーブ\T1.2422;ル
 44
0.985857
 73
     1
  7
BIGFONT
  0
MTEXT
  5
762
100
AcDbEntity
  8
0
100
AcDbMText
 10
90.300000
 20
58.025000
 40
3.187500
 41
53.550000
 71
     1
 72
     5
  1
\fＭＳ ゴシック|b0|i0|c128|p49;\H3.1875;\T1.0200;プローブ拡大\T0.9578;図
 44
0.886310
 73
     1
  7
BIGFONT
  0
ELLIPSE
  5
765
100
AcDbEntity
  8
0
370
    20
100
AcDbEllipse
 10
46.950000
 20
95.975000
 30
0.000000
 11
0.00000000000000
 21
11.250000
 31
0.000000
210
0.000000
220
0.000000
230
1.000000
 40
0.522222
 41
0.000000
 42
6.283185
  0
LWPOLYLINE
  5
768
100
AcDbEntity
  8
0
100
AcDbPolyline
 90
     7
 70
     0
 43
0.200000
 10
53.275000
 20
97.850000
 10
71.250000
 20
108.175000
 10
70.475000
 20
117.225000
 10
79.225000
 20
104.725000
 10
73.750000
 20
90.050000
 10
72.500000
 20
99.275000
 10
53.450000
 20
95.675000
  0
SPLINE
  5
779
100
AcDbEntity
  8
0
370
    20
100
AcDbSpline
210
0.000000
220
0.000000
230
1.000000
 70
     8
 71
     3
 72
    11
 73
     7
 74
     0
 42
0.0000001
 43
0.0000001
 44
0.0000000001
 40
0.000000
 40
0.000000
 40
0.000000
 40
0.000000
 40
4.575068
 40
4.575068
 40
4.575068
 40
9.631005
 40
9.631005
 40
9.631005
 40
9.631005
 10
116.875000
 20
233.575000
 30
0.000000
 10
116.275000
 20
234.025000
 30
0.000000
 10
114.650000
 20
235.950000
 30
0.000000
 10
113.200000
 20
236.300000
 30
0.000000
 10
111.775000
 20
236.625000
 30
0.000000
 10
109.050000
 20
235.675000
 30
0.000000
 10
108.200000
 20
235.550000
 30
0.000000
  0
SPLINE
  5
77c
100
AcDbEntity
  8
0
370
    20
100
AcDbSpline
210
0.000000
220
0.000000
230
1.000000
 70
     8
 71
     3
 72
    11
 73
     7
 74
     0
 42
0.0000001
 43
0.0000001
 44
0.0000000001
 40
0.000000
 40
0.000000
 40
0.000000
 40
0.000000
 40
8.972493
 40
8.972493
 40
8.972493
 40
17.368399
 40
17.368399
 40
17.368399
 40
17.368399
 10
123.600000
 20
233.300000
 30
0.000000
 10
122.350000
 20
234.100000
 30
0.000000
 10
118.700000
 20
237.825000
 30
0.000000
 10
116.100000
 20
238.225000
 30
0.000000
 10
113.525000
 20
238.600000
 30
0.000000
 10
109.475000
 20
236.025000
 30
0.000000
 10
108.125000
 20
235.600000
 30
0.000000
  0
SPLINE
  5
77f
100
AcDbEntity
  8
0
370
    40
100
AcDbSpline
210
0.000000
220
0.000000
230
1.000000
 70
     8
 71
     3
 72
    14
 73
    10
 74
     0
 42
0.0000001
 43
0.0000001
 44
0.0000000001
 40
0.000000
 40
0.000000
 40
0.000000
 40
0.000000
 40
3.775745
 40
3.775745
 40
3.775745
 40
21.205927
 40
21.205927
 40
21.205927
 40
26.699389
 40
26.699389
 40
26.699389
 40
26.699389
 10
82.575000
 20
231.450000
 30
0.000000
 10
83.075000
 20
231.825000
 30
0.000000
 10
82.150000
 20
233.300000
 30
0.000000
 10
85.550000
 20
233.775000
 30
0.000000
 10
88.950000
 20
234.225000
 30
0.000000
 10
99.200000
 20
233.900000
 30
0.000000
 10
102.975000
 20
234.200000
 30
0.000000
 10
106.775000
 20
234.475000
 30
0.000000
 10
107.425000
 20
235.325000
 30
0.000000
 10
108.300000
 20
235.550000
 30
0.000000
  0
LINE
  5
782
100
AcDbEntity
  8
0
370
    20
100
AcDbLine
 10
115.400000
 20
232.925000
 11
124.950000
 21
232.925000
  0
LINE
  5
785
100
AcDbEntity
  8
0
370
    20
100
AcDbLine
 10
125.325000
 20
232.550000
 11
125.325000
 21
223.625000
  0
LINE
  5
788
100
AcDbEntity
  8
0
370
    20
100
AcDbLine
 10
124.950000
 20
223.250000
 11
115.400000
 21
223.250000
  0
LINE
  5
78b
100
AcDbEntity
  8
0
370
    20
100
AcDbLine
 10
115.025000
 20
223.625000
 11
115.025000
 21
232.550000
  0
ARC
  5
78e
100
AcDbEntity
  8
0
370
    20
100
AcDbCircle
 10
124.925000
 20
232.525000
 40
0.375000
100
AcDbArc
 50
360.000000
 51
90.000000
  0
ARC
  5
791
100
AcDbEntity
  8
0
370
    20
100
AcDbCircle
 10
124.925000
 20
223.650000
 40
0.375000
100
AcDbArc
 50
270.000000
 51
360.000000
  0
ARC
  5
794
100
AcDbEntity
  8
0
370
    20
100
AcDbCircle
 10
115.425000
 20
223.650000
 40
0.375000
100
AcDbArc
 50
180.000000
 51
270.000000
  0
ARC
  5
797
100
AcDbEntity
  8
0
370
    20
100
AcDbCircle
 10
115.425000
 20
232.525000
 40
0.375000
100
AcDbArc
 50
90.000000
 51
180.000000
  0
LINE
  5
79a
100
AcDbEntity
  8
0
370
    20
100
AcDbLine
 10
115.350000
 20
232.375000
 11
124.875000
 21
232.375000
  0
LINE
  5
79d
100
AcDbEntity
  8
0
370
    20
100
AcDbLine
 10
117.300000
 20
230.975000
 11
117.300000
 21
224.575000
  0
LINE
  5
7a0
100
AcDbEntity
  8
0
370
    20
100
AcDbLine
 10
120.175000
 20
230.975000
 11
120.175000
 21
224.575000
  0
LINE
  5
7a3
100
AcDbEntity
  8
0
370
    20
100
AcDbLine
 10
123.075000
 20
230.975000
 11
123.075000
 21
224.575000
  0
LINE
  5
7a6
100
AcDbEntity
  8
0
370
    20
100
AcDbLine
 10
123.050000
 20
232.925000
 11
123.050000
 21
233.450000
  0
LINE
  5
7a9
100
AcDbEntity
  8
0
370
    20
100
AcDbLine
 10
123.375000
 20
233.775000
 11
123.700000
 21
233.775000
  0
LINE
  5
7ac
100
AcDbEntity
  8
0
370
    20
100
AcDbLine
 10
124.025000
 20
233.450000
 11
124.025000
 21
232.925000
  0
ARC
  5
7af
100
AcDbEntity
  8
0
370
    20
100
AcDbCircle
 10
123.400000
 20
233.425000
 40
0.325000
100
AcDbArc
 50
90.000000
 51
180.000000
  0
ARC
  5
7b2
100
AcDbEntity
  8
0
370
    20
100
AcDbCircle
 10
123.675000
 20
233.425000
 40
0.325000
100
AcDbArc
 50
360.000000
 51
90.000000
  0
HATCH
  5
7b5
330
F6
100
AcDbEntity
  8
0
100
AcDbHatch
 10
0.0
 20
0.0
 30
0.0
210
0.0
220
0.0
230
1.0
  2
SOLID
 70
     1
 71
     0
 91
     1
 92
     7
 72
     0
 73
     1
 93
     8
 10
123.075000
 20
232.925000
 10
123.075000
 20
233.400000
 10
123.200000
 20
233.675000
 10
123.350000
 20
233.750000
 10
123.575000
 20
233.775000
 10
123.850000
 20
233.700000
 10
124.000000
 20
233.475000
 10
124.000000
 20
232.925000
 97
     1
330
7b8
 75
     0
 76
     1
 47
0.651316
 98
     1
 10
0.0
 20
0.0
  0
LWPOLYLINE
  5
7b8
330
F6
100
AcDbEntity
  8
0
100
AcDbPolyline
 90
     8
 70
     1
 43
0.200000
 10
123.075000
 20
232.925000
 10
123.075000
 20
233.400000
 10
123.200000
 20
233.675000
 10
123.350000
 20
233.750000
 10
123.575000
 20
233.775000
 10
123.850000
 20
233.700000
 10
124.000000
 20
233.475000
 10
124.000000
 20
232.925000
  0
LINE
  5
7cb
100
AcDbEntity
  8
0
370
    20
100
AcDbLine
 10
116.325000
 20
232.925000
 11
116.325000
 21
233.450000
  0
LINE
  5
7ce
100
AcDbEntity
  8
0
370
    20
100
AcDbLine
 10
116.650000
 20
233.775000
 11
116.975000
 21
233.775000
  0
LINE
  5
7d1
100
AcDbEntity
  8
0
370
    20
100
AcDbLine
 10
117.300000
 20
233.450000
 11
117.300000
 21
232.925000
  0
ARC
  5
7d4
100
AcDbEntity
  8
0
370
    20
100
AcDbCircle
 10
116.675000
 20
233.425000
 40
0.325000
100
AcDbArc
 50
90.000000
 51
180.000000
  0
ARC
  5
7d7
100
AcDbEntity
  8
0
370
    20
100
AcDbCircle
 10
116.950000
 20
233.425000
 40
0.325000
100
AcDbArc
 50
360.000000
 51
90.000000
  0
HATCH
  5
7da
330
F6
100
AcDbEntity
  8
0
100
AcDbHatch
 10
0.0
 20
0.0
 30
0.0
210
0.0
220
0.0
230
1.0
  2
SOLID
 70
     1
 71
     0
 91
     1
 92
     7
 72
     0
 73
     1
 93
     8
 10
116.350000
 20
232.925000
 10
116.350000
 20
233.400000
 10
116.475000
 20
233.675000
 10
116.625000
 20
233.750000
 10
116.850000
 20
233.775000
 10
117.125000
 20
233.700000
 10
117.275000
 20
233.475000
 10
117.275000
 20
232.925000
 97
     1
330
7dd
 75
     0
 76
     1
 47
0.651316
 98
     1
 10
0.0
 20
0.0
  0
LWPOLYLINE
  5
7dd
330
F6
100
AcDbEntity
  8
0
100
AcDbPolyline
 90
     8
 70
     1
 43
0.200000
 10
116.350000
 20
232.925000
 10
116.350000
 20
233.400000
 10
116.475000
 20
233.675000
 10
116.625000
 20
233.750000
 10
116.850000
 20
233.775000
 10
117.125000
 20
233.700000
 10
117.275000
 20
233.475000
 10
117.275000
 20
232.925000
  0
HATCH
  5
7f0
330
F6
100
AcDbEntity
  8
0
100
AcDbHatch
 10
0.0
 20
0.0
 30
0.0
210
0.0
220
0.0
230
1.0
  2
SOLID
 70
     1
 71
     0
 91
     1
 92
     7
 72
     0
 73
     1
 93
    54
 10
87.650000
 20
231.375000
 10
87.650000
 20
232.950000
 10
87.625000
 20
232.950000
 10
87.550000
 20
233.550000
 10
87.375000
 20
234.125000
 10
87.100000
 20
234.650000
 10
86.725000
 20
235.100000
 10
86.275000
 20
235.475000
 10
85.750000
 20
235.750000
 10
85.175000
 20
235.925000
 10
84.600000
 20
235.975000
 10
72.875000
 20
235.975000
 10
72.200000
 20
235.850000
 10
71.575000
 20
235.600000
 10
71.000000
 20
235.250000
 10
70.500000
 20
234.800000
 10
70.500000
 20
234.775000
 10
70.525000
 20
234.800000
 10
70.500000
 20
234.800000
 10
66.850000
 20
230.450000
 10
66.825000
 20
230.500000
 10
66.400000
 20
230.075000
 10
65.875000
 20
229.750000
 10
65.325000
 20
229.525000
 10
64.725000
 20
229.425000
 10
64.500000
 20
229.400000
 10
64.550000
 20
229.375000
 10
53.700000
 20
229.375000
 10
53.625000
 20
228.925000
 10
65.025000
 20
228.925000
 10
64.975000
 20
228.950000
 10
65.225000
 20
228.975000
 10
65.750000
 20
229.075000
 10
66.225000
 20
229.275000
 10
66.675000
 20
229.575000
 10
67.025000
 20
229.950000
 10
67.025000
 20
229.875000
 10
70.650000
 20
234.175000
 10
70.600000
 20
234.175000
 10
71.150000
 20
234.700000
 10
71.800000
 20
235.100000
 10
72.500000
 20
235.375000
 10
73.250000
 20
235.525000
 10
84.475000
 20
235.525000
 10
85.000000
 20
235.475000
 10
85.500000
 20
235.325000
 10
85.975000
 20
235.075000
 10
86.400000
 20
234.750000
 10
86.725000
 20
234.325000
 10
86.975000
 20
233.850000
 10
87.125000
 20
233.350000
 10
87.200000
 20
232.800000
 10
87.225000
 20
232.825000
 10
87.225000
 20
231.375000
 97
     1
330
7f3
 75
     0
 76
     1
 47
0.651316
 98
     1
 10
0.0
 20
0.0
  0
LWPOLYLINE
  5
7f3
330
F6
100
AcDbEntity
  8
0
100
AcDbPolyline
 90
    55
 70
     0
 43
0.200000
 10
87.650000
 20
231.375000
 10
87.650000
 20
232.950000
 10
87.625000
 20
232.950000
 10
87.550000
 20
233.550000
 10
87.375000
 20
234.125000
 10
87.100000
 20
234.650000
 10
86.725000
 20
235.100000
 10
86.275000
 20
235.475000
 10
85.750000
 20
235.750000
 10
85.175000
 20
235.925000
 10
84.600000
 20
235.975000
 10
72.875000
 20
235.975000
 10
72.200000
 20
235.850000
 10
71.575000
 20
235.600000
 10
71.000000
 20
235.250000
 10
70.500000
 20
234.800000
 10
70.500000
 20
234.775000
 10
70.525000
 20
234.800000
 10
70.500000
 20
234.800000
 10
66.850000
 20
230.450000
 10
66.825000
 20
230.500000
 10
66.400000
 20
230.075000
 10
65.875000
 20
229.750000
 10
65.325000
 20
229.525000
 10
64.725000
 20
229.425000
 10
64.500000
 20
229.400000
 10
64.550000
 20
229.375000
 10
53.700000
 20
229.375000
 10
53.625000
 20
228.925000
 10
65.025000
 20
228.925000
 10
64.975000
 20
228.950000
 10
65.225000
 20
228.975000
 10
65.750000
 20
229.075000
 10
66.225000
 20
229.275000
 10
66.675000
 20
229.575000
 10
67.025000
 20
229.950000
 10
67.025000
 20
229.875000
 10
70.650000
 20
234.175000
 10
70.600000
 20
234.175000
 10
71.150000
 20
234.700000
 10
71.800000
 20
235.100000
 10
72.500000
 20
235.375000
 10
73.250000
 20
235.525000
 10
84.475000
 20
235.525000
 10
85.000000
 20
235.475000
 10
85.500000
 20
235.325000
 10
85.975000
 20
235.075000
 10
86.400000
 20
234.750000
 10
86.725000
 20
234.325000
 10
86.975000
 20
233.850000
 10
87.125000
 20
233.350000
 10
87.200000
 20
232.800000
 10
87.225000
 20
232.825000
 10
87.225000
 20
231.375000
 10
87.650000
 20
231.375000
  0
LINE
  5
864
100
AcDbEntity
  8
0
370
    20
100
AcDbLine
 10
87.650000
 20
231.375000
 11
87.650000
 21
232.950000
  0
LINE
  5
867
100
AcDbEntity
  8
0
370
    20
100
AcDbLine
 10
84.625000
 20
235.975000
 11
73.150000
 21
235.975000
  0
LINE
  5
86a
100
AcDbEntity
  8
0
370
    20
100
AcDbLine
 10
70.525000
 20
234.800000
 11
66.850000
 21
230.450000
  0
LINE
  5
86d
100
AcDbEntity
  8
0
370
    20
100
AcDbLine
 10
64.550000
 20
229.375000
 11
53.700000
 21
229.375000
  0
ARC
  5
870
100
AcDbEntity
  8
0
370
    20
100
AcDbCircle
 10
64.500000
 20
232.475000
 40
3.075000
100
AcDbArc
 50
270.000000
 51
319.500000
  0
ARC
  5
873
100
AcDbEntity
  8
0
370
    20
100
AcDbCircle
 10
73.150000
 20
232.500000
 40
3.475000
100
AcDbArc
 50
90.000000
 51
139.375000
  0
ARC
  5
876
100
AcDbEntity
  8
0
370
    20
100
AcDbCircle
 10
84.600000
 20
232.950000
 40
3.025000
100
AcDbArc
 50
360.000000
 51
90.000000
  0
LINE
  5
879
100
AcDbEntity
  8
0
370
    20
100
AcDbLine
 10
53.625000
 20
228.925000
 11
65.025000
 21
228.925000
  0
LINE
  5
87c
100
AcDbEntity
  8
0
370
    20
100
AcDbLine
 10
67.025000
 20
229.875000
 11
70.650000
 21
234.175000
  0
LINE
  5
87f
100
AcDbEntity
  8
0
370
    20
100
AcDbLine
 10
73.575000
 20
235.525000
 11
84.525000
 21
235.525000
  0
LINE
  5
882
100
AcDbEntity
  8
0
370
    20
100
AcDbLine
 10
87.225000
 20
232.825000
 11
87.225000
 21
231.375000
  0
ARC
  5
885
100
AcDbEntity
  8
0
370
    20
100
AcDbCircle
 10
64.975000
 20
231.625000
 40
2.675000
100
AcDbArc
 50
270.000000
 51
319.875000
  0
ARC
  5
888
100
AcDbEntity
  8
0
370
    20
100
AcDbCircle
 10
73.575000
 20
231.650000
 40
3.875000
100
AcDbArc
 50
90.000000
 51
139.750000
  0
ARC
  5
88b
100
AcDbEntity
  8
0
370
    20
100
AcDbCircle
 10
84.475000
 20
232.800000
 40
2.725000
100
AcDbArc
 50
360.000000
 51
90.000000
  0
MTEXT
  5
88e
100
AcDbEntity
  8
0
100
AcDbMText
 10
88.800000
 20
164.575000
 40
2.681250
 41
55.125000
 71
     1
 72
     5
  1
\fＭＳ ゴシック|b0|i0|c128|p49;\T1.0200;ケーシン\T1.0811;グ\H3.1875;\T1.0200;拡大\T0.9599;図
 44
0.915387
 73
     1
  7
BIGFONT
  0
MTEXT
  5
891
100
AcDbEntity
  8
0
100
AcDbMText
 10
79.700000
 20
178.775000
 40
1.875000
 41
9.000000
 71
     1
 72
     5
  1
\fＭＳ ゴシック|b0|i0|c128|p49;\H1.875;\T1.0200;Ａ\T1.1617;軸
 44
0.965195
 73
     1
  7
BIGFONT
  0
MTEXT
  5
894
100
AcDbEntity
  8
0
100
AcDbMText
 10
75.325000
 20
174.400000
 40
2.662500
 41
17.750000
 71
     1
 72
     5
  1
\fＭＳ ゴシック|b0|i0|c128|p49;\H1.875;\T1.0200;地すべり移動の主軸方\T1.1617;向
 44
0.889875
 73
     1
  7
BIGFONT
  0
MTEXT
  5
897
100
AcDbEntity
  8
0
100
AcDbMText
 10
101.450000
 20
194.050000
 40
1.875000
 41
9.000000
 71
     1
 72
     5
  1
\fＭＳ ゴシック|b0|i0|c128|p49;\H1.875;\T1.0200;Ｂ\T1.1617;軸
 44
0.965195
 73
     1
  7
BIGFONT
  0
HATCH
  5
89a
330
F6
100
AcDbEntity
  8
0
100
AcDbHatch
 10
0.0
 20
0.0
 30
0.0
210
0.0
220
0.0
230
1.0
  2
SOLID
 70
     1
 71
     0
 91
     1
 92
     7
 72
     0
 73
     1
 93
     9
 10
94.950000
 20
175.450000
 10
94.950000
 20
176.750000
 10
95.000000
 20
176.700000
 10
94.950000
 20
176.750000
 10
93.975000
 20
177.375000
 10
93.950000
 20
177.375000
 10
93.975000
 20
174.800000
 10
93.975000
 20
174.775000
 10
95.000000
 20
175.475000
 97
     1
330
89d
 75
     0
 76
     1
 47
0.651316
 98
     1
 10
0.0
 20
0.0
  0
LWPOLYLINE
  5
89d
330
F6
100
AcDbEntity
  8
0
100
AcDbPolyline
 90
     9
 70
     1
 43
0.200000
 10
94.950000
 20
175.450000
 10
94.950000
 20
176.750000
 10
95.000000
 20
176.700000
 10
94.950000
 20
176.750000
 10
93.975000
 20
177.375000
 10
93.950000
 20
177.375000
 10
93.975000
 20
174.800000
 10
93.975000
 20
174.775000
 10
95.000000
 20
175.475000
  0
ARC
  5
8b2
100
AcDbEntity
  8
0
370
    20
100
AcDbCircle
 10
104.350000
 20
176.125000
 40
9.400000
100
AcDbArc
 50
176.312500
 51
184.125000
  0
HATCH
  5
8b5
330
F6
100
AcDbEntity
  8
0
100
AcDbHatch
 10
0.0
 20
0.0
 30
0.0
210
0.0
220
0.0
230
1.0
  2
SOLID
 70
     1
 71
     0
 91
     1
 92
     7
 72
     0
 73
     1
 93
     4
 10
96.025000
 20
175.050000
 10
95.000000
 20
175.475000
 10
93.975000
 20
174.775000
 10
95.125000
 20
174.275000
 97
     1
330
8b8
 75
     0
 76
     1
 47
0.651316
 98
     1
 10
0.0
 20
0.0
  0
LWPOLYLINE
  5
8b8
330
F6
100
AcDbEntity
  8
0
100
AcDbPolyline
 90
     4
 70
     1
 43
0.200000
 10
96.025000
 20
175.050000
 10
95.000000
 20
175.475000
 10
93.975000
 20
174.775000
 10
95.125000
 20
174.275000
  0
LINE
  5
8c3
100
AcDbEntity
  8
0
370
    20
100
AcDbLine
 10
96.025000
 20
175.050000
 11
95.000000
 21
175.475000
  0
LINE
  5
8c6
100
AcDbEntity
  8
0
370
    20
100
AcDbLine
 10
95.125000
 20
174.275000
 11
93.975000
 21
174.775000
  0
HATCH
  5
8c9
330
F6
100
AcDbEntity
  8
0
100
AcDbHatch
 10
0.0
 20
0.0
 30
0.0
210
0.0
220
0.0
230
1.0
  2
SOLID
 70
     1
 71
     0
 91
     1
 92
     7
 72
     0
 73
     1
 93
     6
 10
95.000000
 20
176.700000
 10
96.025000
 20
177.200000
 10
95.100000
 20
177.850000
 10
93.975000
 20
177.375000
 10
93.975000
 20
177.350000
 10
93.975000
 20
177.375000
 97
     1
330
8cc
 75
     0
 76
     1
 47
0.651316
 98
     1
 10
0.0
 20
0.0
  0
LWPOLYLINE
  5
8cc
330
F6
100
AcDbEntity
  8
0
100
AcDbPolyline
 90
     6
 70
     1
 43
0.200000
 10
95.000000
 20
176.700000
 10
96.025000
 20
177.200000
 10
95.100000
 20
177.850000
 10
93.975000
 20
177.375000
 10
93.975000
 20
177.350000
 10
93.975000
 20
177.375000
  0
LINE
  5
8db
100
AcDbEntity
  8
0
370
    20
100
AcDbLine
 10
95.000000
 20
176.700000
 11
96.025000
 21
177.200000
  0
LINE
  5
8de
100
AcDbEntity
  8
0
370
    20
100
AcDbLine
 10
95.100000
 20
177.850000
 11
93.975000
 21
177.350000
  0
ARC
  5
8e1
100
AcDbEntity
  8
0
370
    20
100
AcDbCircle
 10
104.350000
 20
176.125000
 40
10.450000
100
AcDbArc
 50
173.187500
 51
187.375000
  0
HATCH
  5
8e4
330
F6
100
AcDbEntity
  8
0
100
AcDbHatch
 10
0.0
 20
0.0
 30
0.0
210
0.0
220
0.0
230
1.0
  2
SOLID
 70
     1
 71
     0
 91
     1
 92
     7
 72
     0
 73
     1
 93
     6
 10
103.650000
 20
185.500000
 10
105.025000
 20
185.500000
 10
105.075000
 20
185.450000
 10
105.375000
 20
186.525000
 10
103.325000
 20
186.525000
 10
103.625000
 20
185.450000
 97
     1
330
8e7
 75
     0
 76
     1
 47
0.651316
 98
     1
 10
0.0
 20
0.0
  0
LWPOLYLINE
  5
8e7
330
F6
100
AcDbEntity
  8
0
100
AcDbPolyline
 90
     6
 70
     1
 43
0.200000
 10
103.650000
 20
185.500000
 10
105.025000
 20
185.500000
 10
105.075000
 20
185.450000
 10
105.375000
 20
186.525000
 10
103.325000
 20
186.525000
 10
103.625000
 20
185.450000
  0
ARC
  5
8f6
100
AcDbEntity
  8
0
370
    20
100
AcDbCircle
 10
104.350000
 20
176.125000
 40
9.400000
100
AcDbArc
 50
85.750000
 51
94.250000
  0
HATCH
  5
8f9
330
F6
100
AcDbEntity
  8
0
100
AcDbHatch
 10
0.0
 20
0.0
 30
0.0
210
0.0
220
0.0
230
1.0
  2
SOLID
 70
     1
 71
     0
 91
     1
 92
     7
 72
     0
 73
     1
 93
     5
 10
103.625000
 20
185.450000
 10
103.275000
 20
184.400000
 10
103.225000
 20
184.450000
 10
102.675000
 20
185.375000
 10
103.325000
 20
186.525000
 97
     1
330
8fc
 75
     0
 76
     1
 47
0.651316
 98
     1
 10
0.0
 20
0.0
  0
LWPOLYLINE
  5
8fc
330
F6
100
AcDbEntity
  8
0
100
AcDbPolyline
 90
     5
 70
     1
 43
0.200000
 10
103.625000
 20
185.450000
 10
103.275000
 20
184.400000
 10
103.225000
 20
184.450000
 10
102.675000
 20
185.375000
 10
103.325000
 20
186.525000
  0
LINE
  5
909
100
AcDbEntity
  8
0
370
    20
100
AcDbLine
 10
103.625000
 20
185.450000
 11
103.275000
 21
184.400000
  0
LINE
  5
90c
100
AcDbEntity
  8
0
370
    20
100
AcDbLine
 10
103.325000
 20
186.525000
 11
102.675000
 21
185.375000
  0
HATCH
  5
90f
330
F6
100
AcDbEntity
  8
0
100
AcDbHatch
 10
0.0
 20
0.0
 30
0.0
210
0.0
220
0.0
230
1.0
  2
SOLID
 70
     1
 71
     0
 91
     1
 92
     7
 72
     0
 73
     1
 93
     4
 10
105.075000
 20
185.450000
 10
105.475000
 20
184.450000
 10
106.025000
 20
185.375000
 10
105.375000
 20
186.525000
 97
     1
330
912
 75
     0
 76
     1
 47
0.651316
 98
     1
 10
0.0
 20
0.0
  0
LWPOLYLINE
  5
912
330
F6
100
AcDbEntity
  8
0
100
AcDbPolyline
 90
     4
 70
     1
 43
0.200000
 10
105.075000
 20
185.450000
 10
105.475000
 20
184.450000
 10
106.025000
 20
185.375000
 10
105.375000
 20
186.525000
  0
LINE
  5
91d
100
AcDbEntity
  8
0
370
    20
100
AcDbLine
 10
105.075000
 20
185.450000
 11
105.475000
 21
184.450000
  0
LINE
  5
920
100
AcDbEntity
  8
0
370
    20
100
AcDbLine
 10
105.375000
 20
186.525000
 11
106.025000
 21
185.375000
  0
ARC
  5
923
100
AcDbEntity
  8
0
370
    20
100
AcDbCircle
 10
104.350000
 20
176.125000
 40
10.450000
100
AcDbArc
 50
84.375000
 51
95.625000
  0
HATCH
  5
926
330
F6
100
AcDbEntity
  8
0
100
AcDbHatch
 10
0.0
 20
0.0
 30
0.0
210
0.0
220
0.0
230
1.0
  2
SOLID
 70
     1
 71
     0
 91
     1
 92
     7
 72
     0
 73
     1
 93
     5
 10
113.700000
 20
176.825000
 10
113.700000
 20
175.375000
 10
114.725000
 20
174.975000
 10
114.725000
 20
177.300000
 10
113.650000
 20
176.825000
 97
     1
330
929
 75
     0
 76
     1
 47
0.651316
 98
     1
 10
0.0
 20
0.0
  0
LWPOLYLINE
  5
929
330
F6
100
AcDbEntity
  8
0
100
AcDbPolyline
 90
     5
 70
     1
 43
0.200000
 10
113.700000
 20
176.825000
 10
113.700000
 20
175.375000
 10
114.725000
 20
174.975000
 10
114.725000
 20
177.300000
 10
113.650000
 20
176.825000
  0
ARC
  5
936
100
AcDbEntity
  8
0
370
    20
100
AcDbCircle
 10
104.350000
 20
176.125000
 40
9.400000
100
AcDbArc
 50
355.562500
 51
4.250000
  0
HATCH
  5
939
330
F6
100
AcDbEntity
  8
0
100
AcDbHatch
 10
0.0
 20
0.0
 30
0.0
210
0.0
220
0.0
230
1.0
  2
SOLID
 70
     1
 71
     0
 91
     1
 92
     7
 72
     0
 73
     1
 93
     4
 10
113.650000
 20
176.825000
 10
112.675000
 20
177.175000
 10
113.600000
 20
177.775000
 10
114.725000
 20
177.300000
 97
     1
330
93c
 75
     0
 76
     1
 47
0.651316
 98
     1
 10
0.0
 20
0.0
  0
LWPOLYLINE
  5
93c
330
F6
100
AcDbEntity
  8
0
100
AcDbPolyline
 90
     4
 70
     1
 43
0.200000
 10
113.650000
 20
176.825000
 10
112.675000
 20
177.175000
 10
113.600000
 20
177.775000
 10
114.725000
 20
177.300000
  0
LINE
  5
947
100
AcDbEntity
  8
0
370
    20
100
AcDbLine
 10
113.650000
 20
176.825000
 11
112.675000
 21
177.175000
  0
LINE
  5
94a
100
AcDbEntity
  8
0
370
    20
100
AcDbLine
 10
114.725000
 20
177.300000
 11
113.600000
 21
177.775000
  0
HATCH
  5
94d
330
F6
100
AcDbEntity
  8
0
100
AcDbHatch
 10
0.0
 20
0.0
 30
0.0
210
0.0
220
0.0
230
1.0
  2
SOLID
 70
     1
 71
     0
 91
     1
 92
     7
 72
     0
 73
     1
 93
     4
 10
112.675000
 20
174.975000
 10
113.700000
 20
175.375000
 10
114.725000
 20
174.975000
 10
113.600000
 20
174.400000
 97
     1
330
950
 75
     0
 76
     1
 47
0.651316
 98
     1
 10
0.0
 20
0.0
  0
LWPOLYLINE
  5
950
330
F6
100
AcDbEntity
  8
0
100
AcDbPolyline
 90
     4
 70
     1
 43
0.200000
 10
112.675000
 20
174.975000
 10
113.700000
 20
175.375000
 10
114.725000
 20
174.975000
 10
113.600000
 20
174.400000
  0
LINE
  5
95b
100
AcDbEntity
  8
0
370
    20
100
AcDbLine
 10
112.675000
 20
174.975000
 11
113.700000
 21
175.375000
  0
LINE
  5
95e
100
AcDbEntity
  8
0
370
    20
100
AcDbLine
 10
114.725000
 20
174.975000
 11
113.600000
 21
174.400000
  0
ARC
  5
961
100
AcDbEntity
  8
0
370
    20
100
AcDbCircle
 10
104.350000
 20
176.125000
 40
10.450000
100
AcDbArc
 50
353.687500
 51
6.437500
  0
HATCH
  5
964
330
F6
100
AcDbEntity
  8
0
100
AcDbHatch
 10
0.0
 20
0.0
 30
0.0
210
0.0
220
0.0
230
1.0
  2
SOLID
 70
     1
 71
     0
 91
     1
 92
     7
 72
     0
 73
     1
 93
     8
 10
105.025000
 20
166.775000
 10
103.700000
 20
166.775000
 10
103.325000
 20
165.750000
 10
103.325000
 20
165.725000
 10
103.325000
 20
165.750000
 10
105.350000
 20
165.750000
 10
105.375000
 20
165.725000
 10
105.075000
 20
166.825000
 97
     1
330
967
 75
     0
 76
     1
 47
0.651316
 98
     1
 10
0.0
 20
0.0
  0
LWPOLYLINE
  5
967
330
F6
100
AcDbEntity
  8
0
100
AcDbPolyline
 90
     8
 70
     1
 43
0.200000
 10
105.025000
 20
166.775000
 10
103.700000
 20
166.775000
 10
103.325000
 20
165.750000
 10
103.325000
 20
165.725000
 10
103.325000
 20
165.750000
 10
105.350000
 20
165.750000
 10
105.375000
 20
165.725000
 10
105.075000
 20
166.825000
  0
ARC
  5
97a
100
AcDbEntity
  8
0
370
    20
100
AcDbCircle
 10
104.350000
 20
176.125000
 40
9.400000
100
AcDbArc
 50
265.812500
 51
274.187500
  0
HATCH
  5
97d
330
F6
100
AcDbEntity
  8
0
100
AcDbHatch
 10
0.0
 20
0.0
 30
0.0
210
0.0
220
0.0
230
1.0
  2
SOLID
 70
     1
 71
     0
 91
     1
 92
     7
 72
     0
 73
     1
 93
     8
 10
105.500000
 20
167.800000
 10
105.475000
 20
167.800000
 10
105.075000
 20
166.825000
 10
105.375000
 20
165.725000
 10
105.425000
 20
165.725000
 10
106.050000
 20
166.900000
 10
106.025000
 20
166.875000
 10
105.475000
 20
167.800000
 97
     1
330
980
 75
     0
 76
     1
 47
0.651316
 98
     1
 10
0.0
 20
0.0
  0
LWPOLYLINE
  5
980
330
F6
100
AcDbEntity
  8
0
100
AcDbPolyline
 90
     8
 70
     1
 43
0.200000
 10
105.500000
 20
167.800000
 10
105.475000
 20
167.800000
 10
105.075000
 20
166.825000
 10
105.375000
 20
165.725000
 10
105.425000
 20
165.725000
 10
106.050000
 20
166.900000
 10
106.025000
 20
166.875000
 10
105.475000
 20
167.800000
  0
LINE
  5
993
100
AcDbEntity
  8
0
370
    20
100
AcDbLine
 10
105.500000
 20
167.800000
 11
105.075000
 21
166.825000
  0
LINE
  5
996
100
AcDbEntity
  8
0
370
    20
100
AcDbLine
 10
106.050000
 20
166.900000
 11
105.425000
 21
165.725000
  0
HATCH
  5
999
330
F6
100
AcDbEntity
  8
0
100
AcDbHatch
 10
0.0
 20
0.0
 30
0.0
210
0.0
220
0.0
230
1.0
  2
SOLID
 70
     1
 71
     0
 91
     1
 92
     7
 72
     0
 73
     1
 93
     7
 10
103.700000
 20
166.775000
 10
103.275000
 20
167.800000
 10
103.225000
 20
167.800000
 10
102.675000
 20
166.875000
 10
102.725000
 20
166.850000
 10
103.300000
 20
165.675000
 10
103.325000
 20
165.725000
 97
     1
330
99c
 75
     0
 76
     1
 47
0.651316
 98
     1
 10
0.0
 20
0.0
  0
LWPOLYLINE
  5
99c
330
F6
100
AcDbEntity
  8
0
100
AcDbPolyline
 90
     7
 70
     1
 43
0.200000
 10
103.700000
 20
166.775000
 10
103.275000
 20
167.800000
 10
103.225000
 20
167.800000
 10
102.675000
 20
166.875000
 10
102.725000
 20
166.850000
 10
103.300000
 20
165.675000
 10
103.325000
 20
165.725000
  0
LINE
  5
9ad
100
AcDbEntity
  8
0
370
    20
100
AcDbLine
 10
103.700000
 20
166.775000
 11
103.275000
 21
167.800000
  0
LINE
  5
9b0
100
AcDbEntity
  8
0
370
    20
100
AcDbLine
 10
102.725000
 20
166.850000
 11
103.300000
 21
165.675000
  0
ARC
  5
9b3
100
AcDbEntity
  8
0
370
    20
100
AcDbCircle
 10
104.350000
 20
176.125000
 40
10.450000
100
AcDbArc
 50
264.375000
 51
275.625000
  0
HATCH
  5
9b6
330
F6
100
AcDbEntity
  8
0
100
AcDbHatch
 10
0.0
 20
0.0
 30
0.0
210
0.0
220
0.0
230
1.0
  2
SOLID
 70
     1
 71
     0
 91
     1
 92
     7
 72
     0
 73
     1
 93
    18
 10
102.675000
 20
166.900000
 10
100.900000
 20
167.400000
 10
99.250000
 20
168.225000
 10
97.800000
 20
169.375000
 10
96.625000
 20
170.775000
 10
95.725000
 20
172.400000
 10
95.125000
 20
174.275000
 10
96.000000
 20
175.050000
 10
96.025000
 20
175.050000
 10
96.000000
 20
175.050000
 10
96.225000
 20
173.975000
 10
96.800000
 20
172.450000
 10
97.675000
 20
171.050000
 10
98.775000
 20
169.825000
 10
100.125000
 20
168.875000
 10
101.625000
 20
168.200000
 10
103.225000
 20
167.800000
 10
102.675000
 20
166.875000
 97
     1
330
9b9
 75
     0
 76
     1
 47
0.651316
 98
     1
 10
0.0
 20
0.0
  0
LWPOLYLINE
  5
9b9
330
F6
100
AcDbEntity
  8
0
100
AcDbPolyline
 90
    18
 70
     1
 43
0.200000
 10
102.675000
 20
166.900000
 10
100.900000
 20
167.400000
 10
99.250000
 20
168.225000
 10
97.800000
 20
169.375000
 10
96.625000
 20
170.775000
 10
95.725000
 20
172.400000
 10
95.125000
 20
174.275000
 10
96.000000
 20
175.050000
 10
96.025000
 20
175.050000
 10
96.000000
 20
175.050000
 10
96.225000
 20
173.975000
 10
96.800000
 20
172.450000
 10
97.675000
 20
171.050000
 10
98.775000
 20
169.825000
 10
100.125000
 20
168.875000
 10
101.625000
 20
168.200000
 10
103.225000
 20
167.800000
 10
102.675000
 20
166.875000
  0
ARC
  5
9e0
100
AcDbEntity
  8
0
370
    20
100
AcDbCircle
 10
104.350000
 20
176.125000
 40
9.400000
100
AcDbArc
 50
191.375000
 51
259.750000
  0
ARC
  5
9e3
100
AcDbEntity
  8
0
370
    20
100
AcDbCircle
 10
104.350000
 20
176.125000
 40
8.400000
100
AcDbArc
 50
187.437500
 51
262.375000
  0
HATCH
  5
9e6
330
F6
100
AcDbEntity
  8
0
100
AcDbHatch
 10
0.0
 20
0.0
 30
0.0
210
0.0
220
0.0
230
1.0
  2
SOLID
 70
     1
 71
     0
 91
     1
 92
     7
 72
     0
 73
     1
 93
    24
 10
113.575000
 20
174.425000
 10
113.550000
 20
174.425000
 10
113.075000
 20
172.650000
 10
112.225000
 20
171.025000
 10
111.075000
 20
169.575000
 10
109.650000
 20
168.400000
 10
108.050000
 20
167.500000
 10
106.300000
 20
166.950000
 10
106.000000
 20
166.925000
 10
106.000000
 20
166.900000
 10
106.025000
 20
166.875000
 10
106.000000
 20
166.925000
 10
105.475000
 20
167.800000
 10
105.450000
 20
167.825000
 10
106.450000
 20
168.000000
 10
108.000000
 20
168.575000
 10
109.400000
 20
169.425000
 10
110.600000
 20
170.550000
 10
111.575000
 20
171.875000
 10
112.275000
 20
173.375000
 10
112.650000
 20
174.975000
 10
112.675000
 20
174.975000
 10
113.550000
 20
174.425000
 10
113.600000
 20
174.400000
 97
     1
330
9e9
 75
     0
 76
     1
 47
0.651316
 98
     1
 10
0.0
 20
0.0
  0
LWPOLYLINE
  5
9e9
330
F6
100
AcDbEntity
  8
0
100
AcDbPolyline
 90
    25
 70
     0
 43
0.200000
 10
113.575000
 20
174.425000
 10
113.550000
 20
174.425000
 10
113.075000
 20
172.650000
 10
112.225000
 20
171.025000
 10
111.075000
 20
169.575000
 10
109.650000
 20
168.400000
 10
108.050000
 20
167.500000
 10
106.300000
 20
166.950000
 10
106.000000
 20
166.925000
 10
106.000000
 20
166.900000
 10
106.025000
 20
166.875000
 10
106.000000
 20
166.925000
 10
105.475000
 20
167.800000
 10
105.450000
 20
167.825000
 10
106.450000
 20
168.000000
 10
108.000000
 20
168.575000
 10
109.400000
 20
169.425000
 10
110.600000
 20
170.550000
 10
111.575000
 20
171.875000
 10
112.275000
 20
173.375000
 10
112.650000
 20
174.975000
 10
112.675000
 20
174.975000
 10
113.550000
 20
174.425000
 10
113.600000
 20
174.400000
 10
113.575000
 20
174.425000
  0
ARC
  5
a1e
100
AcDbEntity
  8
0
370
    20
100
AcDbCircle
 10
104.350000
 20
176.125000
 40
9.400000
100
AcDbArc
 50
280.250000
 51
349.500000
  0
ARC
  5
a21
100
AcDbEntity
  8
0
370
    20
100
AcDbCircle
 10
104.350000
 20
176.125000
 40
8.400000
100
AcDbArc
 50
277.687500
 51
352.062500
  0
HATCH
  5
a24
330
F6
100
AcDbEntity
  8
0
100
AcDbHatch
 10
0.0
 20
0.0
 30
0.0
210
0.0
220
0.0
230
1.0
  2
SOLID
 70
     1
 71
     0
 91
     1
 92
     7
 72
     0
 73
     1
 93
    19
 10
106.025000
 20
185.375000
 10
107.800000
 20
184.875000
 10
109.425000
 20
184.025000
 10
110.875000
 20
182.900000
 10
112.075000
 20
181.475000
 10
112.950000
 20
179.875000
 10
113.525000
 20
178.125000
 10
113.600000
 20
177.800000
 10
113.600000
 20
177.775000
 10
112.675000
 20
177.175000
 10
112.675000
 20
177.200000
 10
112.450000
 20
178.275000
 10
111.875000
 20
179.825000
 10
111.025000
 20
181.225000
 10
109.900000
 20
182.425000
 10
108.550000
 20
183.400000
 10
107.075000
 20
184.075000
 10
105.450000
 20
184.450000
 10
105.475000
 20
184.450000
 97
     1
330
a27
 75
     0
 76
     1
 47
0.651316
 98
     1
 10
0.0
 20
0.0
  0
LWPOLYLINE
  5
a27
330
F6
100
AcDbEntity
  8
0
100
AcDbPolyline
 90
    20
 70
     0
 43
0.200000
 10
106.025000
 20
185.375000
 10
107.800000
 20
184.875000
 10
109.425000
 20
184.025000
 10
110.875000
 20
182.900000
 10
112.075000
 20
181.475000
 10
112.950000
 20
179.875000
 10
113.525000
 20
178.125000
 10
113.600000
 20
177.800000
 10
113.600000
 20
177.775000
 10
112.675000
 20
177.175000
 10
112.675000
 20
177.200000
 10
112.450000
 20
178.275000
 10
111.875000
 20
179.825000
 10
111.025000
 20
181.225000
 10
109.900000
 20
182.425000
 10
108.550000
 20
183.400000
 10
107.075000
 20
184.075000
 10
105.450000
 20
184.450000
 10
105.475000
 20
184.450000
 10
106.025000
 20
185.375000
  0
ARC
  5
a52
100
AcDbEntity
  8
0
370
    20
100
AcDbCircle
 10
104.350000
 20
176.125000
 40
9.400000
100
AcDbArc
 50
10.125000
 51
79.687500
  0
ARC
  5
a55
100
AcDbEntity
  8
0
370
    20
100
AcDbCircle
 10
104.350000
 20
176.125000
 40
8.400000
100
AcDbArc
 50
7.250000
 51
82.312500
  0
HATCH
  5
a58
330
F6
100
AcDbEntity
  8
0
100
AcDbHatch
 10
0.0
 20
0.0
 30
0.0
210
0.0
220
0.0
230
1.0
  2
SOLID
 70
     1
 71
     0
 91
     1
 92
     7
 72
     0
 73
     1
 93
    20
 10
95.100000
 20
177.850000
 10
96.025000
 20
177.200000
 10
96.000000
 20
177.225000
 10
96.375000
 20
178.825000
 10
97.050000
 20
180.325000
 10
98.025000
 20
181.675000
 10
99.225000
 20
182.800000
 10
100.625000
 20
183.675000
 10
102.150000
 20
184.250000
 10
103.200000
 20
184.450000
 10
103.225000
 20
184.450000
 10
102.675000
 20
185.375000
 10
102.650000
 20
185.375000
 10
102.400000
 20
185.325000
 10
100.650000
 20
184.775000
 10
99.025000
 20
183.900000
 10
97.625000
 20
182.700000
 10
96.475000
 20
181.275000
 10
95.625000
 20
179.650000
 10
95.100000
 20
177.875000
 97
     1
330
a5b
 75
     0
 76
     1
 47
0.651316
 98
     1
 10
0.0
 20
0.0
  0
LWPOLYLINE
  5
a5b
330
F6
100
AcDbEntity
  8
0
100
AcDbPolyline
 90
    21
 70
     0
 43
0.200000
 10
95.100000
 20
177.850000
 10
96.025000
 20
177.200000
 10
96.000000
 20
177.225000
 10
96.375000
 20
178.825000
 10
97.050000
 20
180.325000
 10
98.025000
 20
181.675000
 10
99.225000
 20
182.800000
 10
100.625000
 20
183.675000
 10
102.150000
 20
184.250000
 10
103.200000
 20
184.450000
 10
103.225000
 20
184.450000
 10
102.675000
 20
185.375000
 10
102.650000
 20
185.375000
 10
102.400000
 20
185.325000
 10
100.650000
 20
184.775000
 10
99.025000
 20
183.900000
 10
97.625000
 20
182.700000
 10
96.475000
 20
181.275000
 10
95.625000
 20
179.650000
 10
95.100000
 20
177.875000
 10
95.100000
 20
177.850000
  0
ARC
  5
a88
100
AcDbEntity
  8
0
370
    20
100
AcDbCircle
 10
104.350000
 20
176.125000
 40
9.400000
100
AcDbArc
 50
100.312500
 51
169.375000
  0
ARC
  5
a8b
100
AcDbEntity
  8
0
370
    20
100
AcDbCircle
 10
104.350000
 20
176.125000
 40
8.400000
100
AcDbArc
 50
97.750000
 51
172.562500
  0
LINE
  5
a8e
100
AcDbEntity
  8
0
370
    20
100
AcDbLine
 10
117.650000
 20
175.975000
 11
89.825000
 21
175.975000
  0
LWPOLYLINE
  5
a91
100
AcDbEntity
  8
0
100
AcDbPolyline
 90
     3
 70
     0
 43
0.200000
 10
91.725000
 20
176.600000
 10
89.825000
 20
175.975000
 10
91.725000
 20
175.375000
  0
LINE
  5
a9a
100
AcDbEntity
  8
0
370
    20
100
AcDbLine
 10
104.525000
 20
164.425000
 11
104.525000
 21
189.425000
  0
LWPOLYLINE
  5
a9d
100
AcDbEntity
  8
0
100
AcDbPolyline
 90
     3
 70
     0
 43
0.200000
 10
105.125000
 20
187.525000
 10
104.525000
 20
189.425000
 10
103.900000
 20
187.525000
  0
CIRCLE
  5
aa6
100
AcDbEntity
  8
0
370
    20
100
AcDbCircle
 10
80.425000
 20
229.875000
 40
0.275000
  0
CIRCLE
  5
aa9
100
AcDbEntity
  8
0
370
    20
100
AcDbCircle
 10
94.000000
 20
229.875000
 40
0.275000
  0
CIRCLE
  5
aac
100
AcDbEntity
  8
0
370
    20
100
AcDbCircle
 10
80.425000
 20
223.775000
 40
0.275000
  0
CIRCLE
  5
aaf
100
AcDbEntity
  8
0
370
    20
100
AcDbCircle
 10
94.100000
 20
223.775000
 40
0.275000
  0
MTEXT
  5
ab2
100
AcDbEntity
  8
0
100
AcDbMText
 10
83.875000
 20
231.650000
 40
2.150000
 41
11.610000
 71
     1
 72
     5
  1
\fＭＳ ゴシック|b1|i0|c128|p49;\H2.15;\Q10;\T0.9100;Q-TIL\T1.0629;T
 44
0.779817
 73
     1
  7
BIGFONT
  0
ENDSEC
  0
SECTION
  2
OBJECTS
  0
DICTIONARY
  5
abd
100
AcDbDictionary
281
     1
  3
ACAD_COLOR
350
abe
  3
ACAD_GROUP
350
abf
  3
ACAD_LAYOUT
350
ac0
  3
ACAD_MATERIAL
350
ac1
  3
ACAD_MLINESTYLE
350
ac2
  3
CONTENTDICTIONARY
350
ac8
  0
DICTIONARY
  5
abe
102
{ACAD_REACTORS
330
abd
102
}
330
abd
100
AcDbDictionary
281
     1
  0
DICTIONARY
  5
abf
102
{ACAD_REACTORS
330
abd
102
}
330
abd
100
AcDbDictionary
281
     1
  3
Layout1
350
ac9
  3
Layout2
350
aca
  3
Model
350
b0d
  0
DICTIONARY
  5
ac0
102
{ACAD_REACTORS
330
abd
102
}
330
abd
100
AcDbDictionary
281
     1
  0
DICTIONARY
  5
ac1
102
{ACAD_REACTORS
330
abd
102
}
330
abd
100
AcDbDictionary
281
     1
  0
DICTIONARY
  5
ac2
102
{ACAD_REACTORS
330
abd
102
}
330
abd
100
AcDbDictionary
281
     1
  3
Standard
350
acb
  0
DICTIONARY
  5
ac3
102
{ACAD_REACTORS
330
abd
102
}
330
abd
100
AcDbDictionary
281
     1
  0
ACDBDICTIONARYWDFLT
  5
ac4
102
{ACAD_REACTORS
330
abd
102
}
330
abd
100
AcDbDictionary
281
     1
  3
Normal
350
b0e
100
AcDbDictionaryWithDefault
340
b0e
  0
DICTIONARY
  5
ac5
102
{ACAD_REACTORS
330
abd
102
}
330
abd
100
AcDbDictionary
281
     1
  3
Standard
350
b0f
  0
DICTIONARY
  5
ac6
102
{ACAD_REACTORS
330
abd
102
}
330
abd
100
AcDbDictionary
281
     1
  3
CEPSNTYPE
350
acd
  3
FINGERPRINTGUID
350
ace
  3
HYPERLINKBASE
350
acf
  3
INSUNITS
350
ad0
  3
LAYOUTDICT
350
ad1
  3
LWETCUNION
350
ad2
  3
PLOTSETDICT
350
ad3
  3
PLOTSTYLNAMDICT
350
ad4
  3
PSVPSCALE
350
ad5
  3
PUCSBASE
350
ad6
  3
PUCSORGBACK
350
ad7
  3
PUCSORGBOTTOM
350
ad8
  3
PUCSORGFRONT
350
ad9
  3
PUCSORGLEFT
350
ada
  3
PUCSORGRIGHT
350
adb
  3
PUCSORGTOP
350
adc
  3
PUCSORTHOREF
350
add
  3
PUCSORTHOVIEW
350
ade
  3
STYLESHEET
350
adf
  3
TSTACKALIGN
350
ae0
  3
TSTACKSIZE
350
ae1
  3
UCSBASE
350
ae2
  3
UCSORGBACK
350
ae3
  3
UCSORGBOTTOM
350
ae4
  3
UCSORGFRONT
350
ae5
  3
UCSORGLEFT
350
ae6
  3
UCSORGRIGHT
350
ae7
  3
UCSORGTOP
350
ae8
  3
UCSORTHOREF
350
ae9
  3
UCSORTHOVIEW
350
aea
  3
VERSIONGUID
350
aeb
  0
DICTIONARY
  5
ac7
102
{ACAD_REACTORS
330
abd
102
}
330
abd
100
AcDbDictionary
281
     1
  3
CTABLESTYLE
350
aec
  3
DIMASSOC
350
aed
  3
HIDETEXT
350
aee
  3
PROJECTNAME
350
aef
  0
LAYOUT
  5
ac8
102
{ACAD_XDICTIONARY
360
dd3
102
}
102
{ACAD_REACTORS
330
abe
102
}
330
abe
100
AcDbPlotSettings
  1

  2

  4

  6

 40
0.000000
 41
0.000000
 42
0.000000
 43
0.000000
 44
0.000000
 45
0.000000
 46
0.000000
 47
0.000000
 48
0.000000
 49
0.000000
140
0.000000
141
0.000000
142
1.000000
143
1.000000
 70
   688
 72
     0
 73
     0
 74
     5
  7

 75
    16
147
1.000000
148
0.000000
149
0.000000
100
AcDbLayout
  1
Layout1
 70
     1
 71
     1
 10
0.000000
 20
0.000000
 11
157.000000
 21
246.000000
 12
0.000000
 22
0.000000
 32
0.000000
 14
100000000000000000000.000000
 24
100000000000000000000.000000
 34
100000000000000000000.000000
 15
-100000000000000000000.000000
 25
-100000000000000000000.000000
 35
-100000000000000000000.000000
146
0.000000
 13
0.000000
 23
0.000000
 33
0.000000
 16
1.000000
 26
0.000000
 36
0.000000
 17
0.000000
 27
1.000000
 37
0.000000
 76
     0
330
ac2
  0
LAYOUT
  5
ac9
102
{ACAD_XDICTIONARY
360
dd5
102
}
102
{ACAD_REACTORS
330
abe
102
}
330
abe
100
AcDbPlotSettings
  1

  2

  4

  6

 40
0.000000
 41
0.000000
 42
0.000000
 43
0.000000
 44
0.000000
 45
0.000000
 46
0.000000
 47
0.000000
 48
0.000000
 49
0.000000
140
0.000000
141
0.000000
142
1.000000
143
1.000000
 70
   688
 72
     0
 73
     0
 74
     5
  7

 75
    16
147
1.000000
148
0.000000
149
0.000000
100
AcDbLayout
  1
Layout2
 70
     1
 71
     2
 10
0.000000
 20
0.000000
 11
157.000000
 21
246.000000
 12
0.000000
 22
0.000000
 32
0.000000
 14
0.000000
 24
0.000000
 34
0.000000
 15
0.000000
 25
0.000000
 35
0.000000
146
0.000000
 13
0.000000
 23
0.000000
 33
0.000000
 16
1.000000
 26
0.000000
 36
0.000000
 17
0.000000
 27
1.000000
 37
0.000000
 76
     0
330
ac9
  0
LAYOUT
  5
aca
102
{ACAD_XDICTIONARY
360
dd7
102
}
102
{ACAD_REACTORS
330
abe
102
}
330
abe
100
AcDbPlotSettings
  1

  2

  4

  6

 40
0.000000
 41
0.000000
 42
0.000000
 43
0.000000
 44
0.000000
 45
0.000000
 46
0.000000
 47
0.000000
 48
0.000000
 49
0.000000
140
0.000000
141
0.000000
142
1.000000
143
1.000000
 70
  1712
 72
     0
 73
     0
 74
     0
  7

 75
    16
147
1.000000
148
0.000000
149
0.000000
100
AcDbLayout
  1
Model
 70
     1
 71
     0
 10
0.000000
 20
0.000000
 11
157.000000
 21
246.000000
 12
0.000000
 22
0.000000
 32
0.000000
 14
0.000000
 24
0.000000
 34
0.000000
 15
0.000000
 25
0.000000
 35
0.000000
146
0.000000
 13
0.000000
 23
0.000000
 33
0.000000
 16
1.000000
 26
0.000000
 36
0.000000
 17
0.000000
 27
1.000000
 37
0.000000
 76
     0
330
aca
  0
MLINESTYLE
  5
acb
102
{ACAD_REACTORS
330
aca
102
}
330
aca
100
AcDbMlineStyle
  2
STANDARD
 70
     0
  3
 
 62
   256
 51
90.000000
 52
90.000000
 71
     2
 49
0.500000
 62
   256
  6
BYLAYER
 49
-0.500000
 62
   256
  6
BYLAYER
  0
ACDBPLACEHOLDER
  5
acc
102
{ACAD_REACTORS
330
acb
102
}
330
acb
  0
DICTIONARY
  5
dd3
100
AcDbDictionary
280
     1
281
     1
  3
ACAD_XREC_ROUNDTRIP
360
dd4
  0
DICTIONARY
  5
dd5
100
AcDbDictionary
280
     1
281
     1
  3
ACAD_XREC_ROUNDTRIP
360
dd6
  0
DICTIONARY
  5
dd7
100
AcDbDictionary
280
     1
281
     1
  3
ACAD_XREC_ROUNDTRIP
360
dd8
  0
XRECORD
  5
dd4
102
{ACAD_REACTORS
330
dd3
102
}
330
dd3
100
AcDbXrecord
280
     1
102
SHADEPLOT
 70
     0
102
SHADEPLOTRESLEVEL
 70
     2
102
SHADEPLOTCUSTOMDPI
 70
   300
  0
XRECORD
  5
dd6
102
{ACAD_REACTORS
330
dd5
102
}
330
dd5
100
AcDbXrecord
280
     1
102
SHADEPLOT
 70
     0
102
SHADEPLOTRESLEVEL
 70
     2
102
SHADEPLOTCUSTOMDPI
 70
   300
  0
XRECORD
  5
dd8
102
{ACAD_REACTORS
330
dd7
102
}
330
dd7
100
AcDbXrecord
280
     1
102
SHADEPLOT
 70
     0
102
SHADEPLOTRESLEVEL
 70
     2
102
SHADEPLOTCUSTOMDPI
 70
   300
  0
ENDSEC
  0
EOF
