  0
SECTION
  2
HEADER
  9
$ACADVER
  1
AC1018
  9
$ACADMAINTVER
 70
     0
  9
$DWGCODEPAGE
  3
ANSI_932
  9
$INSBASE
 10
0.000000
 20
0.000000
 30
0.000000
  9
$EXTMIN
 10
0.000000
 20
0.000000
 30
0.000000
  9
$EXTMAX
 10
272.000000
 20
165.000000
 30
0.000000
  9
$LIMMIN
 10
0.000000
 20
0.000000
  9
$LIMMAX
 10
272.000000
 20
165.000000
  9
$ORTHOMODE
 70
     0
  9
$REGENMODE
 70
     1
  9
$FILLMODE
 70
     1
  9
$QTEXTMODE
 70
     0
  9
$MIRRTEXT
 70
     1
  9
$LTSCALE
 40
1.000000
  9
$ATTMODE
 70
     1
  9
$TEXTSIZE
 40
2.500000
  9
$TRACEWID
 40
1.000000
  9
$TEXTSTYLE
  7
BIGFONT
  9
$CLAYER
  8
0
  9
$CELTYPE
  6
BYLAYER
  9
$CECOLOR
 62
   256
  9
$CELTSCALE
 40
1.000000
  9
$DISPSILH
 70
     0
  9
$DIMSCALE
 40
1.000000
  9
$DIMASZ
 40
2.500000
  9
$DIMEXO
 40
0.625000
  9
$DIMDLI
 40
3.750000
  9
$DIMRND
 40
0.000000
  9
$DIMDLE
 40
0.000000
  9
$DIMEXE
 40
1.250000
  9
$DIMTP
 40
0.000000
  9
$DIMTM
 40
0.000000
  9
$DIMTXT
 40
2.500000
  9
$DIMCEN
 40
2.500000
  9
$DIMTSZ
 40
0.000000
  9
$DIMTOL
 70
     0
  9
$DIMLIM
 70
     0
  9
$DIMTIH
 70
     0
  9
$DIMTOH
 70
     0
  9
$DIMSE1
 70
     0
  9
$DIMSE2
 70
     0
  9
$DIMTAD
 70
     1
  9
$DIMZIN
 70
     8
  9
$DIMBLK
  1

  9
$DIMASO
 70
     1
  9
$DIMSHO
 70
     1
  9
$DIMPOST
  1

  9
$DIMAPOST
  1

  9
$DIMALT
 70
     0
  9
$DIMALTD
 70
     4
  9
$DIMALTF
 40
0.039400
  9
$DIMLFAC
 40
1.000000
  9
$DIMTOFL
 70
     1
  9
$DIMTVP
 40
0.000000
  9
$DIMTIX
 70
     0
  9
$DIMSOXD
 70
     0
  9
$DIMSAH
 70
     0
  9
$DIMBLK1
  1

  9
$DIMBLK2
  1

  9
$DIMSTYLE
  2
STANDARD
  9
$DIMCLRD
 70
     0
  9
$DIMCLRE
 70
     0
  9
$DIMCLRT
 70
     0
  9
$DIMTFAC
 40
1.000000
  9
$DIMGAP
 40
0.625000
  9
$DIMJUST
 70
     0
  9
$DIMSD1
 70
     0
  9
$DIMSD2
 70
     0
  9
$DIMTOLJ
 70
     1
  9
$DIMTZIN
 70
     0
  9
$DIMALTZ
 70
     0
  9
$DIMALTTZ
 70
     0
  9
$DIMUPT
 70
     0
  9
$DIMDEC
 70
     4
  9
$DIMTDEC
 70
     4
  9
$DIMALTU
 70
     8
  9
$DIMALTTD
 70
     4
  9
$DIMTXSTY
  7
STANDARD
  9
$DIMAUNIT
 70
     0
  9
$DIMADEC
 70
     0
  9
$DIMALTRND
 40
0.000000
  9
$DIMAZIN
 70
     0
  9
$DIMDSEP
 70
    46
  9
$DIMATFIT
 70
     3
  9
$DIMFRAC
 70
     0
  9
$DIMLDRBLK
  1

  9
$DIMLUNIT
 70
     2
  9
$DIMLWD
 70
-2
  9
$DIMLWE
 70
-2
  9
$DIMTMOVE
 70
     0
  9
$LUNITS
 70
     2
  9
$LUPREC
 70
     4
  9
$AXISMODE
 70
     0
  9
$SKETCHINC
 40
1.000000
  9
$FILLETRAD
 40
10.000000
  9
$AUNITS
 70
     0
  9
$AUPREC
 70
     0
  9
$MENU
  1
acad
  9
$ELEVATION
 40
0.000000
  9
$PELEVATION
 40
0.000000
  9
$THICKNESS
 40
0.000000
  9
$LIMCHECK
 70
     0
  9
$BLIPMODE
 70
     0
  9
$CHAMFERA
 40
10.000000
  9
$CHAMFERB
 40
10.000000
  9
$CHAMFERC
 40
20.000000
  9
$CHAMFERD
 40
0.000000
  9
$SKPOLY
 70
     0
  9
$TDCREATE
 40
2447851.677998
  9
$TDUCREATE
 40
2447851.677998
  9
$TDUPDATE
 40
2447851.677998
  9
$TDUUPDATE
 40
2447851.677998
  9
$TDINDWG
 40
0.000000
  9
$TDUSRTIMER
 40
0.000000
  9
$USRTIMER
 70
     1
  9
$ANGBASE
 50
0.000000
  9
$ANGDIR
 70
     0
  9
$PDMODE
 70
     0
  9
$PDSIZE
 40
0.000000
  9
$PLINEWID
 40
0.000000
  9
$SPLFRAME
 70
     0
  9
$SPLINETYPE
 70
     6
  9
$SPLINESEGS
 70
     8
  9
$HANDSEED
  5
FFFFFFF
  9
$SURFTAB1
 70
     6
  9
$SURFTAB2
 70
     6
  9
$SURFTYPE
 70
     6
  9
$SURFU
 70
     6
  9
$SURFV
 70
     6
  9
$UCSBASE
  2

  9
$UCSNAME
  2

  9
$UCSORG
 10
0.000000
 20
0.000000
 30
0.000000
  9
$UCSXDIR
 10
1.000000
 20
0.000000
 30
0.000000
  9
$UCSYDIR
 10
0.000000
 20
1.000000
 30
0.000000
  9
$UCSORTHOREF
  2

  9
$UCSORTHOVIEW
 70
     0
  9
$UCSORGTOP
 10
0.000000
 20
0.000000
 30
0.000000
  9
$UCSORGBOTTOM
 10
0.000000
 20
0.000000
 30
0.000000
  9
$UCSORGLEFT
 10
0.000000
 20
0.000000
 30
0.000000
  9
$UCSORGRIGHT
 10
0.000000
 20
0.000000
 30
0.000000
  9
$UCSORGFRONT
 10
0.000000
 20
0.000000
 30
0.000000
  9
$UCSORGBACK
 10
0.000000
 20
0.000000
 30
0.000000
  9
$PUCSBASE
  2

  9
$PUCSNAME
  2

  9
$PUCSORG
 10
0.000000
 20
0.000000
 30
0.000000
  9
$PUCSXDIR
 10
1.000000
 20
0.000000
 30
0.000000
  9
$PUCSYDIR
 10
0.000000
 20
1.000000
 30
0.000000
  9
$PUCSORTHOREF
  2

  9
$PUCSORTHOVIEW
 70
     0
  9
$PUCSORGTOP
 10
0.000000
 20
0.000000
 30
0.000000
  9
$PUCSORGBOTTOM
 10
0.000000
 20
0.000000
 30
0.000000
  9
$PUCSORGLEFT
 10
0.000000
 20
0.000000
 30
0.000000
  9
$PUCSORGRIGHT
 10
0.000000
 20
0.000000
 30
0.000000
  9
$PUCSORGFRONT
 10
0.000000
 20
0.000000
 30
0.000000
  9
$PUCSORGBACK
 10
0.000000
 20
0.000000
 30
0.000000
  9
$USERI1
 70
     0
  9
$USERI2
 70
     0
  9
$USERI3
 70
     0
  9
$USERI4
 70
     0
  9
$USERI5
 70
     0
  9
$USERR1
 40
0.000000
  9
$USERR2
 40
0.000000
  9
$USERR3
 40
0.000000
  9
$USERR4
 40
0.000000
  9
$USERR5
 40
0.000000
  9
$WORLDVIEW
 70
     1
  9
$SHADEDGE
 70
     3
  9
$SHADEDIF
 70
    70
  9
$TILEMODE
 70
     1
  9
$MAXACTVP
 70
    48
  9
$PINSBASE
 10
0.000000
 20
0.000000
 30
0.000000
  9
$PLIMCHECK
 70
     0
  9
$PEXTMIN
 10
100000000000000000000.000000
 20
100000000000000000000.000000
 30
100000000000000000000.000000
  9
$PEXTMAX
 10
-100000000000000000000.000000
 20
-100000000000000000000.000000
 30
-100000000000000000000.000000
  9
$PLIMMIN
 10
0.000000
 20
0.000000
  9
$PLIMMAX
 10
272.000000
 20
165.000000
  9
$UNITMODE
 70
     0
  9
$VISRETAIN
 70
     1
  9
$PLINEGEN
 70
     0
  9
$PSLTSCALE
 70
     1
  9
$TREEDEPTH
 70
  3020
  9
$CMLSTYLE
  2
STANDARD
  9
$CMLJUST
 70
     0
  9
$CMLSCALE
 40
20.000000
  9
$PROXYGRAPHICS
 70
     1
  9
$MEASUREMENT
 70
     1
  9
$CELWEIGHT
370
-1
  9
$ENDCAPS
280
     0
  9
$JOINSTYLE
280
     0
  9
$LWDISPLAY
290
     1
  9
$INSUNITS
 70
     0
  9
$HYPERLINKBASE
  1

  9
$STYLESHEET
  1

  9
$XEDIT
290
     1
  9
$CEPSNTYPE
380
     0
  9
$PSTYLEMODE
290
     1
  9
$FINGERPRINTGUID
  2
{01801163-5BC0-459E-B9C7-2188C09ED432}
  9
$VERSIONGUID
  2
{7F326DDD-95DF-42AD-9861-A0CD9F0961F2}
  9
$EXTNAMES
290
     1
  9
$PSVPSCALE
 40
0.0
  9
$OLESTARTUP
290
     0
  9
$SORTENTS
280
   127
  9
$INDEXCTL
280
     0
  9
$HIDETEXT
280
     1
  9
$XCLIPFRAME
290
     0
  9
$HALOGAP
280
     0
  9
$OBSCOLOR
 70
   257
  9
$OBSLTYPE
280
     0
  9
$INTERSECTIONDISPLAY
280
     0
  9
$INTERSECTIONCOLOR
 70
   257
  9
$DIMASSOC
280
     2
  9
$PROJECTNAME
  1

  0
ENDSEC
  0
SECTION
  2
TABLES
  0
TABLE
  2
VPORT
  5
a2
100
AcDbSymbolTable
 70
     2
  0
VPORT
  5
a5
100
AcDbSymbolTableRecord
100
AcDbViewportTableRecord
  2
*ACTIVE
 70
     0
 10
0.000000
 20
0.000000
 11
1.000000
 21
1.000000
 12
300.000000
 22
200.000000
 13
0.000000
 23
0.000000
 14
10.000000
 24
10.000000
 15
10.000000
 25
10.000000
 16
0.000000
 26
0.000000
 36
1.000000
 17
0.000000
 27
0.000000
 37
0.000000
 40
300.000000
 41
1.600432
 42
50.000000
 43
0.000000
 44
0.000000
 50
0.000000
 51
0.000000
 71
     0
 72
   100
 73
     1
 74
     1
 75
     0
 76
     0
 77
     0
 78
     0
  0
ENDTAB
  0
TABLE
  2
LTYPE
  5
a8
100
AcDbSymbolTable
 70
    11
  0
LTYPE
  5
ab
100
AcDbSymbolTableRecord
100
AcDbLinetypeTableRecord
  2
BYBLOCK
 70
    64
  3
BYBLOCK
 72
    65
 73
     0
 40
0.000000
  0
LTYPE
  5
ae
100
AcDbSymbolTableRecord
100
AcDbLinetypeTableRecord
  2
BYLAYER
 70
    64
  3
BYLAYER
 72
    65
 73
     0
 40
0.000000
  0
LTYPE
  5
b1
100
AcDbSymbolTableRecord
100
AcDbLinetypeTableRecord
  2
CONTINUOUS
 70
    64
  3
実線
 72
    65
 73
     0
 40
0.000000
  0
LTYPE
  5
b4
100
AcDbSymbolTableRecord
100
AcDbLinetypeTableRecord
  2
DASHED
 70
    64
  3
__ __ __ __ __ __ __ __ __ __ __ __ __ __ __
 72
    65
 73
     2
 40
0.750000
 49
0.500000
 74
     0
 49
-0.250000
 74
     0
  0
LTYPE
  5
b7
100
AcDbSymbolTableRecord
100
AcDbLinetypeTableRecord
  2
HIDDEN
 70
    64
  3
_ _ _ _ _ _ _ _ _ _ _ _ _ _ _ _ _ _ _ _ _ _ _
 72
    65
 73
     2
 40
0.375000
 49
0.250000
 74
     0
 49
-0.125000
 74
     0
  0
LTYPE
  5
ba
100
AcDbSymbolTableRecord
100
AcDbLinetypeTableRecord
  2
CENTER
 70
    64
  3
____ _ ____ _ ____ _ ____ _ ____ _ ____ _ ____
 72
    65
 73
     4
 40
2.000000
 49
1.250000
 74
     0
 49
-0.250000
 74
     0
 49
0.250000
 74
     0
 49
-0.250000
 74
     0
  0
LTYPE
  5
bd
100
AcDbSymbolTableRecord
100
AcDbLinetypeTableRecord
  2
PHANTOM
 70
    64
  3
_____ _ _ _____ _ _ _____ _ _ _____ _ _ ____
 72
    65
 73
     6
 40
2.500000
 49
1.250000
 74
     0
 49
-0.250000
 74
     0
 49
0.250000
 74
     0
 49
-0.250000
 74
     0
 49
0.250000
 74
     0
 49
-0.250000
 74
     0
  0
LTYPE
  5
c0
100
AcDbSymbolTableRecord
100
AcDbLinetypeTableRecord
  2
DOT
 70
    64
  3
...............................................
 72
    65
 73
     2
 40
0.250000
 49
0.000000
 74
     0
 49
-0.250000
 74
     0
  0
LTYPE
  5
c3
100
AcDbSymbolTableRecord
100
AcDbLinetypeTableRecord
  2
DASHDOT
 70
    64
  3
__ . __ . __ . __ . __ . __ . __ . __ . __ . __
 72
    65
 73
     4
 40
1.000000
 49
0.500000
 74
     0
 49
-0.250000
 74
     0
 49
0.000000
 74
     0
 49
-0.250000
 74
     0
  0
LTYPE
  5
c6
100
AcDbSymbolTableRecord
100
AcDbLinetypeTableRecord
  2
BORDER
 70
    64
  3
__ __ . __ __ . __ __ . __ __ . __ __ . __ __
 72
    65
 73
     6
 40
1.750000
 49
0.500000
 74
     0
 49
-0.250000
 74
     0
 49
0.500000
 74
     0
 49
-0.250000
 74
     0
 49
0.000000
 74
     0
 49
-0.250000
 74
     0
  0
LTYPE
  5
c9
100
AcDbSymbolTableRecord
100
AcDbLinetypeTableRecord
  2
DIVIDE
 70
    64
  3
__ . . __ . . __ . . __ . . __ . . __ . . __
 72
    65
 73
     6
 40
1.250000
 49
0.500000
 74
     0
 49
-0.250000
 74
     0
 49
0.000000
 74
     0
 49
-0.250000
 74
     0
 49
0.000000
 74
     0
 49
-0.250000
 74
     0
  0
ENDTAB
  0
TABLE
  2
LAYER
  5
cc
100
AcDbSymbolTable
 70
     2
  0
LAYER
  5
cf
100
AcDbSymbolTableRecord
100
AcDbLayerTableRecord
  2
0
 70
     0
 62
     7
  6
CONTINUOUS
370
 65533
390
	F
  0
LAYER
  5
d2
100
AcDbSymbolTableRecord
100
AcDbLayerTableRecord
  2
B
 70
     0
 62
     7
  6
CONTINUOUS
370
 65533
390
	F
  0
LAYER
  5
d5
100
AcDbSymbolTableRecord
100
AcDbLayerTableRecord
  2
C
 70
     0
 62
     7
  6
CONTINUOUS
370
 65533
390
	F
  0
LAYER
  5
d8
100
AcDbSymbolTableRecord
100
AcDbLayerTableRecord
  2
D
 70
     0
 62
     7
  6
CONTINUOUS
370
 65533
390
	F
  0
LAYER
  5
db
100
AcDbSymbolTableRecord
100
AcDbLayerTableRecord
  2
E
 70
     0
 62
     7
  6
CONTINUOUS
370
 65533
390
	F
  0
LAYER
  5
de
100
AcDbSymbolTableRecord
100
AcDbLayerTableRecord
  2
F
 70
     0
 62
     7
  6
CONTINUOUS
370
 65533
390
	F
  0
LAYER
  5
e1
100
AcDbSymbolTableRecord
100
AcDbLayerTableRecord
  2
G
 70
     0
 62
     7
  6
CONTINUOUS
370
 65533
390
	F
  0
LAYER
  5
e4
100
AcDbSymbolTableRecord
100
AcDbLayerTableRecord
  2
H
 70
     0
 62
     7
  6
CONTINUOUS
370
 65533
390
	F
  0
LAYER
  5
e7
100
AcDbSymbolTableRecord
100
AcDbLayerTableRecord
  2
I
 70
     0
 62
     7
  6
CONTINUOUS
370
 65533
390
	F
  0
LAYER
  5
ea
100
AcDbSymbolTableRecord
100
AcDbLayerTableRecord
  2
J
 70
     0
 62
     7
  6
CONTINUOUS
370
 65533
390
	F
  0
LAYER
  5
ed
100
AcDbSymbolTableRecord
100
AcDbLayerTableRecord
  2
K
 70
     0
 62
     7
  6
CONTINUOUS
370
 65533
390
	F
  0
LAYER
  5
f0
100
AcDbSymbolTableRecord
100
AcDbLayerTableRecord
  2
L
 70
     0
 62
     7
  6
CONTINUOUS
370
 65533
390
	F
  0
LAYER
  5
f3
100
AcDbSymbolTableRecord
100
AcDbLayerTableRecord
  2
M
 70
     0
 62
     7
  6
CONTINUOUS
370
 65533
390
	F
  0
LAYER
  5
f6
100
AcDbSymbolTableRecord
100
AcDbLayerTableRecord
  2
N
 70
     0
 62
     7
  6
CONTINUOUS
370
 65533
390
	F
  0
ENDTAB
  0
TABLE
  2
STYLE
  5
f9
100
AcDbSymbolTable
 70
     2
  0
STYLE
  5
fc
100
AcDbSymbolTableRecord
100
AcDbTextStyleTableRecord
  2
STANDARD
 70
     0
 40
0.000000
 41
0.500000
 50
0.000000
 71
     0
 42
0.300000
  3
txt
  4

  0
STYLE
  5
ff
100
AcDbSymbolTableRecord
100
AcDbTextStyleTableRecord
  2
BIGFONT
 70
    64
 40
0.000000
 41
1.000000
 50
0.000000
 71
     0
 42
0.200000
  3

  4
bigfont
  0
ENDTAB
  0
TABLE
  2
VIEW
  5
102
100
AcDbSymbolTable
 70
     0
  0
ENDTAB
  0
TABLE
  2
UCS
  5
105
100
AcDbSymbolTable
 70
     0
  0
ENDTAB
  0
TABLE
  2
APPID
  5
108
100
AcDbSymbolTable
 70
     3
  0
APPID
  5
10b
100
AcDbSymbolTableRecord
100
AcDbRegAppTableRecord
  2
ACAD
 70
     0
  0
APPID
  5
10e
100
AcDbSymbolTableRecord
100
AcDbRegAppTableRecord
  2
CONTENTTABDATA
 70
     0
  0
APPID
  5
111
100
AcDbSymbolTableRecord
100
AcDbRegAppTableRecord
  2
CONTENTCURRENTTAB
 70
     0
  0
ENDTAB
  0
TABLE
  2
DIMSTYLE
  5
114
330
     0
100
AcDbSymbolTable
 70
     2
100
AcDbDimStyleTable
 70
     1
  0
DIMSTYLE
105
117
100
AcDbSymbolTableRecord
100
AcDbDimStyleTableRecord
  2
STANDARD
 70
     0
  3

  4

  5

  6

  7

 40
1.000000
 41
0.180000
 42
0.062500
 43
0.380000
 44
0.180000
 45
0.000000
 46
0.000000
 47
0.000000
 48
0.000000
140
0.180000
141
0.090000
142
0.000000
143
25.400000
144
1.000000
145
0.000000
146
1.000000
147
0.090000
 71
     0
 72
     0
 73
     1
 74
     1
 75
     0
 76
     0
 77
     0
 78
     0
170
     0
171
     2
172
     0
173
     0
174
     0
175
     0
176
     0
177
     0
178
     0
270
     2
271
     4
272
     4
273
     2
274
     2
340
fc
275
     0
280
     0
281
     0
282
     0
283
     1
284
     0
285
     0
286
     0
287
     3
288
     0
  0
ENDTAB
  0
TABLE
  2
BLOCK_RECORD
  5
11a
100
AcDbSymbolTable
 70
     0
  0
BLOCK_RECORD
  5
11d
100
AcDbSymbolTableRecord
100
AcDbBlockTableRecord
  2
*MODEL_SPACE
  0
BLOCK_RECORD
  5
120
100
AcDbSymbolTableRecord
100
AcDbBlockTableRecord
  2
*PAPER_SPACE
  0
ENDTAB
  0
ENDSEC
  0
SECTION
  2
BLOCKS
  0
BLOCK
  5
123
330
124
100
AcDbEntity
  8
0
100
AcDbBlockBegin
  2
*Model_Space
 70
     0
 10
0.000000
 20
0.000000
 30
0.000000
  3
*Model_Space
  1
 
  0
ENDBLK
  5
126
330
124
100
AcDbEntity
  8
0
100
AcDbBlockEnd
  0
BLOCK
  5
129
330
12a
100
AcDbEntity
 67
     1
  8
0
100
AcDbBlockBegin
  2
*Paper_Space
 70
     0
 10
0.000000
 20
0.000000
 30
0.000000
  3
*Paper_Space
  1
 
  0
ENDBLK
  5
12c
330
12d
100
AcDbEntity
 67
     1
  8
0
100
AcDbBlockEnd
  0
ENDSEC
  0
SECTION
  2
ENTITIES
  0
LWPOLYLINE
  5
12f
100
AcDbEntity
  8
0
100
AcDbPolyline
 90
     4
 70
     1
 43
0.400000
 10
47.150000
 20
74.175000
 10
55.475000
 20
77.725000
 10
58.550000
 20
70.550000
 10
50.225000
 20
66.975000
  0
LWPOLYLINE
  5
13a
100
AcDbEntity
  8
0
100
AcDbPolyline
 90
     4
 70
     1
 43
0.400000
 10
70.800000
 20
84.275000
 10
79.125000
 20
87.825000
 10
82.200000
 20
80.650000
 10
73.875000
 20
77.075000
  0
LINE
  5
145
100
AcDbEntity
  8
0
370
    40
100
AcDbLine
 10
103.075000
 20
97.250000
 11
105.375000
 21
91.825000
  0
LINE
  5
148
100
AcDbEntity
  8
0
370
    40
100
AcDbLine
 10
103.075000
 20
97.250000
 11
105.850000
 21
90.750000
  0
LWPOLYLINE
  5
14b
100
AcDbEntity
  8
0
100
AcDbPolyline
 90
     5
 70
     0
 43
0.400000
 10
105.850000
 20
90.750000
 10
97.525000
 20
87.200000
 10
94.450000
 20
94.375000
 10
102.775000
 20
97.925000
 10
103.050000
 20
97.275000
  0
LWPOLYLINE
  5
158
100
AcDbEntity
  8
0
100
AcDbPolyline
 90
     4
 70
     1
 43
0.400000
 10
118.125000
 20
104.500000
 10
126.450000
 20
108.050000
 10
129.525000
 20
100.850000
 10
121.200000
 20
97.300000
  0
LINE
  5
163
100
AcDbEntity
  8
0
  6
DOT
 62
     7
370
    20
100
AcDbLine
 10
51.825000
 20
75.150000
 11
54.150000
 21
69.700000
  0
LINE
  5
166
100
AcDbEntity
  8
0
  6
DOT
 62
     7
370
    20
100
AcDbLine
 10
75.475000
 20
85.250000
 11
77.800000
 21
79.800000
  0
LINE
  5
169
100
AcDbEntity
  8
0
  6
DOT
 62
     7
370
    20
100
AcDbLine
 10
99.125000
 20
95.350000
 11
101.450000
 21
89.900000
  0
LINE
  5
16c
100
AcDbEntity
  8
0
  6
DOT
 62
     7
370
    20
100
AcDbLine
 10
122.800000
 20
105.450000
 11
125.125000
 21
100.000000
  0
LINE
  5
16f
100
AcDbEntity
  8
0
370
    40
100
AcDbLine
 10
36.625000
 20
62.225000
 11
34.300000
 21
67.675000
  0
LINE
  5
172
100
AcDbEntity
  8
0
370
    40
100
AcDbLine
 10
90.525000
 20
85.100000
 11
81.650000
 21
81.450000
  0
LINE
  5
175
100
AcDbEntity
  8
0
370
    40
100
AcDbLine
 10
90.725000
 20
85.100000
 11
81.650000
 21
81.450000
  0
LINE
  5
178
100
AcDbEntity
  8
0
  6
DOT
 62
     7
370
    40
100
AcDbLine
 10
81.525000
 20
81.400000
 11
73.700000
 21
78.050000
  0
LINE
  5
17b
100
AcDbEntity
  8
0
370
    40
100
AcDbLine
 10
73.625000
 20
78.025000
 11
58.000000
 21
71.375000
  0
LINE
  5
17e
100
AcDbEntity
  8
0
  6
DOT
 62
     7
370
    40
100
AcDbLine
 10
57.900000
 20
71.325000
 11
50.125000
 21
68.000000
  0
LINE
  5
181
100
AcDbEntity
  8
0
370
    40
100
AcDbLine
 10
50.000000
 20
67.950000
 11
36.625000
 21
62.225000
  0
LINE
  5
184
100
AcDbEntity
  8
0
370
    40
100
AcDbLine
 10
90.525000
 20
91.875000
 11
79.325000
 21
86.900000
  0
LINE
  5
187
100
AcDbEntity
  8
0
  6
DOT
 62
     7
370
    40
100
AcDbLine
 10
79.150000
 20
86.825000
 11
71.475000
 21
83.550000
  0
LINE
  5
18a
100
AcDbEntity
  8
0
370
    40
100
AcDbLine
 10
71.300000
 20
83.475000
 11
55.700000
 21
76.850000
  0
LINE
  5
18d
100
AcDbEntity
  8
0
  6
DOT
 62
     7
370
    40
100
AcDbLine
 10
55.575000
 20
76.775000
 11
47.900000
 21
73.500000
  0
LINE
  5
190
100
AcDbEntity
  8
0
370
    40
100
AcDbLine
 10
47.700000
 20
73.400000
 11
34.300000
 21
67.675000
  0
LINE
  5
193
100
AcDbEntity
  8
0
370
    40
100
AcDbLine
 10
139.175000
 20
112.450000
 11
126.650000
 21
107.125000
  0
LINE
  5
196
100
AcDbEntity
  8
0
  6
DOT
 62
     7
370
    40
100
AcDbLine
 10
126.400000
 20
107.000000
 11
118.825000
 21
103.775000
  0
LINE
  5
199
100
AcDbEntity
  8
0
370
    40
100
AcDbLine
 10
118.600000
 20
103.675000
 11
103.075000
 21
97.050000
  0
LINE
  5
19c
100
AcDbEntity
  8
0
  6
DOT
 62
     7
370
    40
100
AcDbLine
 10
102.825000
 20
96.950000
 11
95.200000
 21
93.700000
  0
LINE
  5
19f
100
AcDbEntity
  8
0
370
    40
100
AcDbLine
 10
91.875000
 20
92.500000
 11
94.950000
 21
93.600000
  0
LINE
  5
1a2
100
AcDbEntity
  8
0
370
    40
100
AcDbLine
 10
139.175000
 20
112.450000
 11
141.500000
 21
107.000000
  0
LINE
  5
1a5
100
AcDbEntity
  8
0
370
    40
100
AcDbLine
 10
141.500000
 20
107.000000
 11
129.025000
 21
101.675000
  0
LINE
  5
1a8
100
AcDbEntity
  8
0
  6
DOT
 62
     7
370
    40
100
AcDbLine
 10
128.800000
 20
101.600000
 11
121.175000
 21
98.350000
  0
LINE
  5
1ab
100
AcDbEntity
  8
0
370
    40
100
AcDbLine
 10
120.975000
 20
98.275000
 11
105.400000
 21
91.625000
  0
LINE
  5
1ae
100
AcDbEntity
  8
0
  6
DOT
 62
     7
370
    40
100
AcDbLine
 10
105.175000
 20
91.400000
 11
97.450000
 21
88.175000
  0
LINE
  5
1b1
100
AcDbEntity
  8
0
370
    40
100
AcDbLine
 10
97.075000
 20
87.800000
 11
91.575000
 21
85.625000
  0
LWPOLYLINE
  5
1b4
100
AcDbEntity
  8
0
100
AcDbPolyline
 90
     8
 70
     0
 43
0.400000
 10
19.175000
 20
39.050000
 10
28.550000
 20
43.750000
 10
50.750000
 20
50.300000
 10
64.175000
 20
55.300000
 10
72.300000
 20
61.250000
 10
85.425000
 20
65.000000
 10
86.250000
 20
66.450000
 10
90.525000
 20
68.125000
  0
LWPOLYLINE
  5
1c7
100
AcDbEntity
  8
0
100
AcDbPolyline
 90
     9
 70
     0
 43
0.400000
 10
91.675000
 20
69.475000
 10
99.275000
 20
73.025000
 10
111.350000
 20
76.875000
 10
118.850000
 20
80.925000
 10
130.400000
 20
83.125000
 10
137.900000
 20
93.125000
 10
151.975000
 20
97.500000
 10
163.525000
 20
104.050000
 10
172.900000
 20
106.875000
  0
LINE
  5
1dc
100
AcDbEntity
  8
0
  6
DOT
 62
     7
370
    20
100
AcDbLine
 10
91.775000
 20
89.175000
 11
150.825000
 21
114.375000
  0
LINE
  5
1df
100
AcDbEntity
  8
0
  6
DOT
 62
     7
370
    20
100
AcDbLine
 10
90.725000
 20
88.650000
 11
30.325000
 21
62.725000
  0
LINE
  5
1e2
100
AcDbEntity
  8
0
370
    20
100
AcDbLine
 10
30.400000
 20
60.850000
 11
30.400000
 21
63.100000
  0
LINE
  5
1e5
100
AcDbEntity
  8
0
370
    20
100
AcDbLine
 10
29.850000
 20
63.025000
 11
30.775000
 21
63.025000
  0
HATCH
  5
1e8
330
F6
100
AcDbEntity
  8
0
100
AcDbHatch
 10
0.0
 20
0.0
 30
0.0
210
0.0
220
0.0
230
1.0
  2
SOLID
 70
     1
 71
     0
 91
     1
 92
     7
 72
     0
 73
     1
 93
     5
 10
27.425000
 20
61.775000
 10
33.275000
 20
61.775000
 10
33.275000
 20
27.400000
 10
30.375000
 20
24.375000
 10
27.425000
 20
27.400000
 97
     1
330
1eb
 75
     0
 76
     1
 47
0.651316
 98
     1
 10
0.0
 20
0.0
  0
LWPOLYLINE
  5
1eb
330
F6
100
AcDbEntity
  8
0
100
AcDbPolyline
 90
     5
 70
     1
 43
0.200000
 10
27.425000
 20
61.775000
 10
33.275000
 20
61.775000
 10
33.275000
 20
27.400000
 10
30.375000
 20
24.375000
 10
27.425000
 20
27.400000
  0
LINE
  5
1f8
100
AcDbEntity
  8
0
370
    20
100
AcDbLine
 10
27.425000
 20
61.775000
 11
33.275000
 21
61.775000
  0
LINE
  5
1fb
100
AcDbEntity
  8
0
370
    20
100
AcDbLine
 10
33.275000
 20
61.775000
 11
33.275000
 21
27.400000
  0
LWPOLYLINE
  5
1fe
100
AcDbEntity
  8
0
100
AcDbPolyline
 90
     3
 70
     0
 43
0.200000
 10
27.425000
 20
27.400000
 10
30.375000
 20
24.375000
 10
33.275000
 20
27.400000
  0
LINE
  5
207
100
AcDbEntity
  8
0
370
    20
100
AcDbLine
 10
27.425000
 20
27.400000
 11
27.425000
 21
61.775000
  0
HATCH
  5
20a
330
F6
100
AcDbEntity
  8
0
100
AcDbHatch
 10
0.0
 20
0.0
 30
0.0
210
0.0
220
0.0
230
1.0
  2
SOLID
 70
     1
 71
     0
 91
     1
 92
     7
 72
     0
 73
     1
 93
     5
 10
151.175000
 20
105.450000
 10
157.025000
 20
105.450000
 10
157.025000
 20
71.075000
 10
154.125000
 20
68.050000
 10
151.175000
 20
71.075000
 97
     1
330
20d
 75
     0
 76
     1
 47
0.651316
 98
     1
 10
0.0
 20
0.0
  0
LWPOLYLINE
  5
20d
330
F6
100
AcDbEntity
  8
0
100
AcDbPolyline
 90
     5
 70
     1
 43
0.200000
 10
151.175000
 20
105.450000
 10
157.025000
 20
105.450000
 10
157.025000
 20
71.075000
 10
154.125000
 20
68.050000
 10
151.175000
 20
71.075000
  0
LINE
  5
21a
100
AcDbEntity
  8
0
370
    20
100
AcDbLine
 10
151.175000
 20
105.450000
 11
157.025000
 21
105.450000
  0
LINE
  5
21d
100
AcDbEntity
  8
0
370
    20
100
AcDbLine
 10
157.025000
 20
105.450000
 11
157.025000
 21
71.075000
  0
LWPOLYLINE
  5
220
100
AcDbEntity
  8
0
100
AcDbPolyline
 90
     3
 70
     0
 43
0.200000
 10
151.175000
 20
71.075000
 10
154.125000
 20
68.050000
 10
157.025000
 20
71.075000
  0
LINE
  5
229
100
AcDbEntity
  8
0
370
    20
100
AcDbLine
 10
151.175000
 20
71.075000
 11
151.175000
 21
105.450000
  0
LWPOLYLINE
  5
22c
100
AcDbEntity
  8
0
100
AcDbPolyline
 90
     4
 70
     0
 43
0.800000
 10
130.400000
 20
83.125000
 10
126.575000
 20
73.425000
 10
121.250000
 20
64.675000
 10
118.450000
 20
60.300000
  0
LWPOLYLINE
  5
237
100
AcDbEntity
  8
0
100
AcDbPolyline
 90
     5
 70
     0
 43
0.800000
 10
64.175000
 20
55.300000
 10
57.500000
 20
41.875000
 10
50.325000
 20
33.750000
 10
43.750000
 20
27.175000
 10
39.700000
 20
24.675000
  0
LWPOLYLINE
  5
244
100
AcDbEntity
  8
0
100
AcDbPolyline
 90
     5
 70
     0
 43
0.800000
 10
85.425000
 20
65.000000
 10
81.250000
 20
53.125000
 10
73.125000
 20
42.800000
 10
59.075000
 20
34.375000
 10
43.750000
 20
27.175000
  0
LWPOLYLINE
  5
251
100
AcDbEntity
  8
0
100
AcDbPolyline
 90
     3
 70
     0
 43
0.800000
 10
118.450000
 20
60.300000
 10
111.025000
 20
53.275000
 10
104.700000
 20
48.975000
  0
LWPOLYLINE
  5
25a
100
AcDbEntity
  8
0
100
AcDbPolyline
 90
     4
 70
     0
 43
0.800000
 10
90.325000
 20
41.250000
 10
82.825000
 20
36.550000
 10
71.575000
 20
31.250000
 10
71.250000
 20
31.250000
  0
LINE
  5
265
100
AcDbEntity
  8
0
370
    40
100
AcDbLine
 10
143.125000
 20
105.425000
 11
165.425000
 21
105.425000
  0
LINE
  5
268
100
AcDbEntity
  8
0
370
    40
100
AcDbLine
 10
145.575000
 20
115.825000
 11
145.575000
 21
105.425000
  0
LINE
  5
26b
100
AcDbEntity
  8
0
370
    40
100
AcDbLine
 10
154.100000
 20
118.600000
 11
143.125000
 21
115.250000
  0
LINE
  5
26e
100
AcDbEntity
  8
0
370
    40
100
AcDbLine
 10
162.650000
 20
115.825000
 11
162.650000
 21
105.425000
  0
LINE
  5
271
100
AcDbEntity
  8
0
370
    40
100
AcDbLine
 10
154.075000
 20
118.600000
 11
165.425000
 21
115.200000
  0
LWPOLYLINE
  5
274
100
AcDbEntity
  8
0
100
AcDbPolyline
 90
     4
 70
     1
 43
0.400000
 10
150.075000
 20
113.375000
 10
159.975000
 20
113.375000
 10
159.975000
 20
105.425000
 10
150.075000
 20
105.425000
  0
ARC
  5
27f
100
AcDbEntity
  8
0
  6
DOT
 62
     7
370
    40
100
AcDbCircle
 10
152.575000
 20
110.800000
 40
4.100000
100
AcDbArc
 50
237.250000
 51
33.250000
  0
ARC
  5
282
100
AcDbEntity
  8
0
370
    40
100
AcDbCircle
 10
152.575000
 20
110.800000
 40
4.100000
100
AcDbArc
 50
36.687500
 51
234.750000
  0
HATCH
  5
285
330
F6
100
AcDbEntity
  8
0
100
AcDbHatch
 10
0.0
 20
0.0
 30
0.0
210
0.0
220
0.0
230
1.0
  2
SOLID
 70
     1
 71
     0
 91
     1
 92
     7
 72
     0
 73
     1
 93
     5
 10
41.575000
 20
38.200000
 10
40.625000
 20
39.175000
 10
40.625000
 20
74.375000
 10
42.500000
 20
74.375000
 10
42.500000
 20
39.175000
 97
     1
330
288
 75
     0
 76
     1
 47
0.651316
 98
     1
 10
0.0
 20
0.0
  0
LWPOLYLINE
  5
288
330
F6
100
AcDbEntity
  8
0
100
AcDbPolyline
 90
     5
 70
     1
 43
0.200000
 10
41.575000
 20
38.200000
 10
40.625000
 20
39.175000
 10
40.625000
 20
74.375000
 10
42.500000
 20
74.375000
 10
42.500000
 20
39.175000
  0
LWPOLYLINE
  5
295
100
AcDbEntity
  8
0
100
AcDbPolyline
 90
     5
 70
     1
 43
0.200000
 10
41.575000
 20
38.200000
 10
40.625000
 20
39.175000
 10
40.625000
 20
74.375000
 10
42.500000
 20
74.375000
 10
42.500000
 20
39.175000
  0
HATCH
  5
2a2
330
F6
100
AcDbEntity
  8
0
100
AcDbHatch
 10
0.0
 20
0.0
 30
0.0
210
0.0
220
0.0
230
1.0
  2
SOLID
 70
     1
 71
     0
 91
     1
 92
     7
 72
     0
 73
     1
 93
     4
 10
38.725000
 20
63.000000
 10
40.600000
 20
63.000000
 10
40.600000
 20
61.125000
 10
38.725000
 20
61.125000
 97
     1
330
2a5
 75
     0
 76
     1
 47
0.651316
 98
     1
 10
0.0
 20
0.0
  0
LWPOLYLINE
  5
2a5
330
F6
100
AcDbEntity
  8
0
100
AcDbPolyline
 90
     4
 70
     1
 43
0.200000
 10
38.725000
 20
63.000000
 10
40.600000
 20
63.000000
 10
40.600000
 20
61.125000
 10
38.725000
 20
61.125000
  0
LWPOLYLINE
  5
2b0
100
AcDbEntity
  8
0
100
AcDbPolyline
 90
     4
 70
     1
 43
0.200000
 10
38.725000
 20
63.000000
 10
40.600000
 20
63.000000
 10
40.600000
 20
61.125000
 10
38.725000
 20
61.125000
  0
HATCH
  5
2bb
330
F6
100
AcDbEntity
  8
0
100
AcDbHatch
 10
0.0
 20
0.0
 30
0.0
210
0.0
220
0.0
230
1.0
  2
SOLID
 70
     1
 71
     0
 91
     1
 92
     7
 72
     0
 73
     1
 93
     5
 10
66.800000
 20
49.250000
 10
65.850000
 20
50.225000
 10
65.850000
 20
85.425000
 10
67.725000
 20
85.425000
 10
67.725000
 20
50.225000
 97
     1
330
2be
 75
     0
 76
     1
 47
0.651316
 98
     1
 10
0.0
 20
0.0
  0
LWPOLYLINE
  5
2be
330
F6
100
AcDbEntity
  8
0
100
AcDbPolyline
 90
     5
 70
     1
 43
0.200000
 10
66.800000
 20
49.250000
 10
65.850000
 20
50.225000
 10
65.850000
 20
85.425000
 10
67.725000
 20
85.425000
 10
67.725000
 20
50.225000
  0
LWPOLYLINE
  5
2cb
100
AcDbEntity
  8
0
100
AcDbPolyline
 90
     5
 70
     1
 43
0.200000
 10
66.800000
 20
49.250000
 10
65.850000
 20
50.225000
 10
65.850000
 20
85.425000
 10
67.725000
 20
85.425000
 10
67.725000
 20
50.225000
  0
HATCH
  5
2d8
330
F6
100
AcDbEntity
  8
0
100
AcDbHatch
 10
0.0
 20
0.0
 30
0.0
210
0.0
220
0.0
230
1.0
  2
SOLID
 70
     1
 71
     0
 91
     1
 92
     7
 72
     0
 73
     1
 93
     4
 10
63.950000
 20
74.050000
 10
65.825000
 20
74.050000
 10
65.825000
 20
72.175000
 10
63.950000
 20
72.175000
 97
     1
330
2db
 75
     0
 76
     1
 47
0.651316
 98
     1
 10
0.0
 20
0.0
  0
LWPOLYLINE
  5
2db
330
F6
100
AcDbEntity
  8
0
100
AcDbPolyline
 90
     4
 70
     1
 43
0.200000
 10
63.950000
 20
74.050000
 10
65.825000
 20
74.050000
 10
65.825000
 20
72.175000
 10
63.950000
 20
72.175000
  0
LWPOLYLINE
  5
2e6
100
AcDbEntity
  8
0
100
AcDbPolyline
 90
     4
 70
     1
 43
0.200000
 10
63.950000
 20
74.050000
 10
65.825000
 20
74.050000
 10
65.825000
 20
72.175000
 10
63.950000
 20
72.175000
  0
HATCH
  5
2f1
330
F6
100
AcDbEntity
  8
0
100
AcDbHatch
 10
0.0
 20
0.0
 30
0.0
210
0.0
220
0.0
230
1.0
  2
SOLID
 70
     1
 71
     0
 91
     1
 92
     7
 72
     0
 73
     1
 93
     5
 10
110.325000
 20
67.775000
 10
109.375000
 20
68.750000
 10
109.375000
 20
103.950000
 10
111.250000
 20
103.950000
 10
111.250000
 20
68.750000
 97
     1
330
2f4
 75
     0
 76
     1
 47
0.651316
 98
     1
 10
0.0
 20
0.0
  0
LWPOLYLINE
  5
2f4
330
F6
100
AcDbEntity
  8
0
100
AcDbPolyline
 90
     5
 70
     1
 43
0.200000
 10
110.325000
 20
67.775000
 10
109.375000
 20
68.750000
 10
109.375000
 20
103.950000
 10
111.250000
 20
103.950000
 10
111.250000
 20
68.750000
  0
LWPOLYLINE
  5
301
100
AcDbEntity
  8
0
100
AcDbPolyline
 90
     5
 70
     1
 43
0.200000
 10
110.325000
 20
67.775000
 10
109.375000
 20
68.750000
 10
109.375000
 20
103.950000
 10
111.250000
 20
103.950000
 10
111.250000
 20
68.750000
  0
HATCH
  5
30e
330
F6
100
AcDbEntity
  8
0
100
AcDbHatch
 10
0.0
 20
0.0
 30
0.0
210
0.0
220
0.0
230
1.0
  2
SOLID
 70
     1
 71
     0
 91
     1
 92
     7
 72
     0
 73
     1
 93
     4
 10
107.475000
 20
92.575000
 10
109.350000
 20
92.575000
 10
109.350000
 20
90.700000
 10
107.475000
 20
90.700000
 97
     1
330
311
 75
     0
 76
     1
 47
0.651316
 98
     1
 10
0.0
 20
0.0
  0
LWPOLYLINE
  5
311
330
F6
100
AcDbEntity
  8
0
100
AcDbPolyline
 90
     4
 70
     1
 43
0.200000
 10
107.475000
 20
92.575000
 10
109.350000
 20
92.575000
 10
109.350000
 20
90.700000
 10
107.475000
 20
90.700000
  0
LWPOLYLINE
  5
31c
100
AcDbEntity
  8
0
100
AcDbPolyline
 90
     4
 70
     1
 43
0.200000
 10
107.475000
 20
92.575000
 10
109.350000
 20
92.575000
 10
109.350000
 20
90.700000
 10
107.475000
 20
90.700000
  0
HATCH
  5
327
330
F6
100
AcDbEntity
  8
0
100
AcDbHatch
 10
0.0
 20
0.0
 30
0.0
210
0.0
220
0.0
230
1.0
  2
SOLID
 70
     1
 71
     0
 91
     1
 92
     7
 72
     0
 73
     1
 93
     5
 10
134.300000
 20
78.025000
 10
133.350000
 20
79.000000
 10
133.350000
 20
114.200000
 10
135.225000
 20
114.200000
 10
135.225000
 20
79.000000
 97
     1
330
32a
 75
     0
 76
     1
 47
0.651316
 98
     1
 10
0.0
 20
0.0
  0
LWPOLYLINE
  5
32a
330
F6
100
AcDbEntity
  8
0
100
AcDbPolyline
 90
     5
 70
     1
 43
0.200000
 10
134.300000
 20
78.025000
 10
133.350000
 20
79.000000
 10
133.350000
 20
114.200000
 10
135.225000
 20
114.200000
 10
135.225000
 20
79.000000
  0
LWPOLYLINE
  5
337
100
AcDbEntity
  8
0
100
AcDbPolyline
 90
     5
 70
     1
 43
0.200000
 10
134.300000
 20
78.025000
 10
133.350000
 20
79.000000
 10
133.350000
 20
114.200000
 10
135.225000
 20
114.200000
 10
135.225000
 20
79.000000
  0
HATCH
  5
344
330
F6
100
AcDbEntity
  8
0
100
AcDbHatch
 10
0.0
 20
0.0
 30
0.0
210
0.0
220
0.0
230
1.0
  2
SOLID
 70
     1
 71
     0
 91
     1
 92
     7
 72
     0
 73
     1
 93
     4
 10
131.450000
 20
102.825000
 10
133.325000
 20
102.825000
 10
133.325000
 20
100.950000
 10
131.450000
 20
100.950000
 97
     1
330
347
 75
     0
 76
     1
 47
0.651316
 98
     1
 10
0.0
 20
0.0
  0
LWPOLYLINE
  5
347
330
F6
100
AcDbEntity
  8
0
100
AcDbPolyline
 90
     4
 70
     1
 43
0.200000
 10
131.450000
 20
102.825000
 10
133.325000
 20
102.825000
 10
133.325000
 20
100.950000
 10
131.450000
 20
100.950000
  0
LWPOLYLINE
  5
352
100
AcDbEntity
  8
0
100
AcDbPolyline
 90
     4
 70
     1
 43
0.200000
 10
131.450000
 20
102.825000
 10
133.325000
 20
102.825000
 10
133.325000
 20
100.950000
 10
131.450000
 20
100.950000
  0
MTEXT
  5
35d
100
AcDbEntity
  8
0
100
AcDbMText
 10
199.850000
 20
47.200000
 40
3.975000
 41
47.700000
 71
     1
 72
     5
  1
\fＭＳ ゴシック|b0|i0|c128|p49;\H3.975;\T1.7507;［正面図\T1.0397;］
 44
0.864660
 73
     1
  7
BIGFONT
  0
MTEXT
  5
360
100
AcDbEntity
  8
0
100
AcDbMText
 10
5.175000
 20
76.075000
 40
2.662500
 41
44.730000
 71
     1
 72
     5
  1
\fＭＳ ゴシック|b0|i0|c128|p49;\T1.2282;移動側固定点杭
 44
0.908099
 73
     1
  7
BIGFONT
  0
MTEXT
  5
363
100
AcDbEntity
  8
0
100
AcDbMText
 10
139.850000
 20
64.225000
 40
2.662500
 41
44.730000
 71
     1
 72
     5
  1
\fＭＳ ゴシック|b0|i0|c128|p49;\T1.2282;不動側固定点杭
 44
0.908099
 73
     1
  7
BIGFONT
  0
MTEXT
  5
366
100
AcDbEntity
  8
0
100
AcDbMText
 10
56.450000
 20
95.700000
 40
2.662500
 41
31.950000
 71
     1
 72
     5
  1
\fＭＳ ゴシック|b0|i0|c128|p49;\T1.2282;インバー線
 44
0.908099
 73
     1
  7
BIGFONT
  0
MTEXT
  5
369
100
AcDbEntity
  8
0
100
AcDbMText
 10
165.825000
 20
123.575000
 40
2.662500
 41
19.170000
 71
     1
 72
     5
  1
\fＭＳ ゴシック|b0|i0|c128|p49;\T1.2282;伸縮計
 44
0.908099
 73
     1
  7
BIGFONT
  0
MTEXT
  5
36c
100
AcDbEntity
  8
0
100
AcDbMText
 10
10.475000
 20
88.275000
 40
2.662500
 41
79.875000
 71
     1
 72
     5
  1
\fＭＳ ゴシック|b0|i0|c128|p49;\T1.2282;インハ　ー線防護塩ビ管VU100m/m
 44
0.908099
 73
     1
  7
BIGFONT
  0
MTEXT
  5
36f
100
AcDbEntity
  8
0
100
AcDbMText
 10
70.800000
 20
108.275000
 40
2.662500
 41
51.120000
 71
     1
 72
     5
  1
\fＭＳ ゴシック|b0|i0|c128|p49;\T1.2282;防護塩ビ管支持杭
 44
0.908099
 73
     1
  7
BIGFONT
  0
MTEXT
  5
372
100
AcDbEntity
  8
0
100
AcDbMText
 10
83.100000
 20
123.900000
 40
2.662500
 41
60.705000
 71
     1
 72
     5
  1
\fＭＳ ゴシック|b0|i0|c128|p49;\T1.2282;インハ　ー線防護部正面図
 44
0.908099
 73
     1
  7
BIGFONT
  0
MTEXT
  5
375
100
AcDbEntity
  8
0
100
AcDbMText
 10
161.450000
 20
85.775000
 40
3.550000
 41
28.755000
 71
     1
 72
     5
  1
\fＭＳ ゴシック|b0|i0|c128|p49;\T1.0200;50～100cm
 44
0.718310
 73
     1
  7
BIGFONT
  0
LWPOLYLINE
  5
378
100
AcDbEntity
  8
0
100
AcDbPolyline
 90
     3
 70
     0
 43
0.400000
 10
200.625000
 20
76.250000
 10
216.725000
 20
76.550000
 10
233.750000
 20
76.400000
  0
HATCH
  5
381
330
F6
100
AcDbEntity
  8
0
100
AcDbHatch
 10
0.0
 20
0.0
 30
0.0
210
0.0
220
0.0
230
1.0
  2
SOLID
 70
     1
 71
     0
 91
     1
 92
     7
 72
     0
 73
     1
 93
     5
 10
208.000000
 20
67.775000
 10
207.050000
 20
68.750000
 10
207.050000
 20
103.950000
 10
208.925000
 20
103.950000
 10
208.925000
 20
68.750000
 97
     1
330
384
 75
     0
 76
     1
 47
0.651316
 98
     1
 10
0.0
 20
0.0
  0
LWPOLYLINE
  5
384
330
F6
100
AcDbEntity
  8
0
100
AcDbPolyline
 90
     5
 70
     1
 43
0.200000
 10
208.000000
 20
67.775000
 10
207.050000
 20
68.750000
 10
207.050000
 20
103.950000
 10
208.925000
 20
103.950000
 10
208.925000
 20
68.750000
  0
LWPOLYLINE
  5
391
100
AcDbEntity
  8
0
100
AcDbPolyline
 90
     5
 70
     1
 43
0.200000
 10
208.000000
 20
67.775000
 10
207.050000
 20
68.750000
 10
207.050000
 20
103.950000
 10
208.925000
 20
103.950000
 10
208.925000
 20
68.750000
  0
HATCH
  5
39e
330
F6
100
AcDbEntity
  8
0
100
AcDbHatch
 10
0.0
 20
0.0
 30
0.0
210
0.0
220
0.0
230
1.0
  2
SOLID
 70
     1
 71
     0
 91
     1
 92
     7
 72
     0
 73
     1
 93
     5
 10
226.750000
 20
67.775000
 10
225.800000
 20
68.750000
 10
225.800000
 20
103.950000
 10
227.675000
 20
103.950000
 10
227.675000
 20
68.750000
 97
     1
330
3a1
 75
     0
 76
     1
 47
0.651316
 98
     1
 10
0.0
 20
0.0
  0
LWPOLYLINE
  5
3a1
330
F6
100
AcDbEntity
  8
0
100
AcDbPolyline
 90
     5
 70
     1
 43
0.200000
 10
226.750000
 20
67.775000
 10
225.800000
 20
68.750000
 10
225.800000
 20
103.950000
 10
227.675000
 20
103.950000
 10
227.675000
 20
68.750000
  0
LWPOLYLINE
  5
3ae
100
AcDbEntity
  8
0
100
AcDbPolyline
 90
     5
 70
     1
 43
0.200000
 10
226.750000
 20
67.775000
 10
225.800000
 20
68.750000
 10
225.800000
 20
103.950000
 10
227.675000
 20
103.950000
 10
227.675000
 20
68.750000
  0
MTEXT
  5
3bb
100
AcDbEntity
  8
0
100
AcDbMText
 10
82.975000
 20
150.600000
 40
4.650000
 41
89.280000
 71
     1
 72
     5
  1
\fＭＳ ゴシック|b0|i0|c128|p49;\H4.65;\T3.3182;伸縮計設置概要\T0.9855;図
 44
0.852062
 73
     1
  7
BIGFONT
  0
MTEXT
  5
3be
100
AcDbEntity
  8
0
100
AcDbMText
 10
90.475000
 20
30.325000
 40
3.975000
 41
47.700000
 71
     1
 72
     5
  1
\fＭＳ ゴシック|b0|i0|c128|p49;\H3.975;\T1.7507;［側面図\T1.0397;］
 44
0.864660
 73
     1
  7
BIGFONT
  0
HATCH
  5
3c1
330
F6
100
AcDbEntity
  8
0
100
AcDbHatch
 10
0.0
 20
0.0
 30
0.0
210
0.0
220
0.0
230
1.0
  2
SOLID
 70
     1
 71
     0
 91
     1
 92
     7
 72
     0
 73
     1
 93
     4
 10
204.250000
 20
92.500000
 10
230.150000
 20
92.500000
 10
230.150000
 20
90.625000
 10
204.250000
 20
90.625000
 97
     1
330
3c4
 75
     0
 76
     1
 47
0.651316
 98
     1
 10
0.0
 20
0.0
  0
LWPOLYLINE
  5
3c4
330
F6
100
AcDbEntity
  8
0
100
AcDbPolyline
 90
     4
 70
     1
 43
0.200000
 10
204.250000
 20
92.500000
 10
230.150000
 20
92.500000
 10
230.150000
 20
90.625000
 10
204.250000
 20
90.625000
  0
LWPOLYLINE
  5
3cf
100
AcDbEntity
  8
0
100
AcDbPolyline
 90
     4
 70
     1
 43
0.200000
 10
204.250000
 20
92.500000
 10
230.150000
 20
92.500000
 10
230.150000
 20
90.625000
 10
204.250000
 20
90.625000
  0
HATCH
  5
3da
330
F6
100
AcDbEntity
  8
0
100
AcDbHatch
 10
0.0
 20
0.0
 30
0.0
210
0.0
220
0.0
230
1.0
  2
SOLID
 70
     1
 71
     0
 91
     1
 92
     7
 72
     0
 73
     1
 93
    64
 10
220.625000
 20
96.275000
 10
220.550000
 20
95.675000
 10
220.375000
 20
95.100000
 10
220.075000
 20
94.550000
 10
219.700000
 20
94.075000
 10
219.225000
 20
93.700000
 10
218.675000
 20
93.400000
 10
218.100000
 20
93.225000
 10
217.500000
 20
93.150000
 10
216.875000
 20
93.225000
 10
216.300000
 20
93.400000
 10
215.750000
 20
93.700000
 10
215.275000
 20
94.075000
 10
214.900000
 20
94.550000
 10
214.600000
 20
95.100000
 10
214.425000
 20
95.675000
 10
214.375000
 20
96.275000
 10
214.425000
 20
96.900000
 10
214.600000
 20
97.475000
 10
214.900000
 20
98.025000
 10
215.275000
 20
98.500000
 10
215.750000
 20
98.875000
 10
216.300000
 20
99.175000
 10
216.875000
 20
99.350000
 10
217.500000
 20
99.400000
 10
218.100000
 20
99.350000
 10
218.675000
 20
99.175000
 10
219.225000
 20
98.875000
 10
219.700000
 20
98.500000
 10
220.075000
 20
98.025000
 10
220.375000
 20
97.475000
 10
220.550000
 20
96.900000
 10
221.275000
 20
96.275000
 10
221.200000
 20
95.550000
 10
220.975000
 20
94.850000
 10
220.625000
 20
94.200000
 10
220.150000
 20
93.625000
 10
219.575000
 20
93.150000
 10
218.925000
 20
92.800000
 10
218.225000
 20
92.575000
 10
217.500000
 20
92.500000
 10
216.750000
 20
92.575000
 10
216.050000
 20
92.800000
 10
215.400000
 20
93.150000
 10
214.825000
 20
93.625000
 10
214.350000
 20
94.200000
 10
214.000000
 20
94.850000
 10
213.775000
 20
95.550000
 10
213.725000
 20
96.275000
 10
213.775000
 20
97.025000
 10
214.000000
 20
97.725000
 10
214.350000
 20
98.375000
 10
214.825000
 20
98.950000
 10
215.400000
 20
99.425000
 10
216.050000
 20
99.775000
 10
216.750000
 20
100.000000
 10
217.500000
 20
100.050000
 10
218.225000
 20
100.000000
 10
218.925000
 20
99.775000
 10
219.575000
 20
99.425000
 10
220.150000
 20
98.950000
 10
220.625000
 20
98.375000
 10
220.975000
 20
97.725000
 10
221.200000
 20
97.025000
 97
     1
330
3dd
 75
     0
 76
     1
 47
0.651316
 98
     1
 10
0.0
 20
0.0
  0
LWPOLYLINE
  5
3dd
330
F6
100
AcDbEntity
  8
0
100
AcDbPolyline
 90
    65
 70
     0
 43
0.200000
 10
220.625000
 20
96.275000
 10
220.550000
 20
95.675000
 10
220.375000
 20
95.100000
 10
220.075000
 20
94.550000
 10
219.700000
 20
94.075000
 10
219.225000
 20
93.700000
 10
218.675000
 20
93.400000
 10
218.100000
 20
93.225000
 10
217.500000
 20
93.150000
 10
216.875000
 20
93.225000
 10
216.300000
 20
93.400000
 10
215.750000
 20
93.700000
 10
215.275000
 20
94.075000
 10
214.900000
 20
94.550000
 10
214.600000
 20
95.100000
 10
214.425000
 20
95.675000
 10
214.375000
 20
96.275000
 10
214.425000
 20
96.900000
 10
214.600000
 20
97.475000
 10
214.900000
 20
98.025000
 10
215.275000
 20
98.500000
 10
215.750000
 20
98.875000
 10
216.300000
 20
99.175000
 10
216.875000
 20
99.350000
 10
217.500000
 20
99.400000
 10
218.100000
 20
99.350000
 10
218.675000
 20
99.175000
 10
219.225000
 20
98.875000
 10
219.700000
 20
98.500000
 10
220.075000
 20
98.025000
 10
220.375000
 20
97.475000
 10
220.550000
 20
96.900000
 10
221.275000
 20
96.275000
 10
221.200000
 20
95.550000
 10
220.975000
 20
94.850000
 10
220.625000
 20
94.200000
 10
220.150000
 20
93.625000
 10
219.575000
 20
93.150000
 10
218.925000
 20
92.800000
 10
218.225000
 20
92.575000
 10
217.500000
 20
92.500000
 10
216.750000
 20
92.575000
 10
216.050000
 20
92.800000
 10
215.400000
 20
93.150000
 10
214.825000
 20
93.625000
 10
214.350000
 20
94.200000
 10
214.000000
 20
94.850000
 10
213.775000
 20
95.550000
 10
213.725000
 20
96.275000
 10
213.775000
 20
97.025000
 10
214.000000
 20
97.725000
 10
214.350000
 20
98.375000
 10
214.825000
 20
98.950000
 10
215.400000
 20
99.425000
 10
216.050000
 20
99.775000
 10
216.750000
 20
100.000000
 10
217.500000
 20
100.050000
 10
218.225000
 20
100.000000
 10
218.925000
 20
99.775000
 10
219.575000
 20
99.425000
 10
220.150000
 20
98.950000
 10
220.625000
 20
98.375000
 10
220.975000
 20
97.725000
 10
221.200000
 20
97.025000
 10
220.625000
 20
96.275000
  0
CIRCLE
  5
462
100
AcDbEntity
  8
0
370
    20
100
AcDbCircle
 10
217.500000
 20
96.275000
 40
3.125000
  0
CIRCLE
  5
465
100
AcDbEntity
  8
0
370
    20
100
AcDbCircle
 10
217.500000
 20
96.275000
 40
3.775000
  0
ARC
  5
468
100
AcDbEntity
  8
0
370
    40
100
AcDbCircle
 10
217.500000
 20
96.275000
 40
4.025000
100
AcDbArc
 50
359.687500
 51
180.312500
  0
LINE
  5
46b
100
AcDbEntity
  8
0
370
    40
100
AcDbLine
 10
213.425000
 20
96.225000
 11
213.425000
 21
90.275000
  0
LINE
  5
46e
100
AcDbEntity
  8
0
370
    40
100
AcDbLine
 10
221.525000
 20
96.250000
 11
221.525000
 21
90.300000
  0
POINT
  5
471
100
AcDbEntity
  8
0
100
AcDbPoint
 10
217.500000
 20
96.250000
  0
MTEXT
  5
474
100
AcDbEntity
  8
0
100
AcDbMText
 10
233.300000
 20
85.775000
 40
2.662500
 41
51.120000
 71
     1
 72
     5
  1
\fＭＳ ゴシック|b0|i0|c128|p49;\T1.2282;防護塩ビ管支持杭
 44
0.908099
 73
     1
  7
BIGFONT
  0
MTEXT
  5
477
100
AcDbEntity
  8
0
100
AcDbMText
 10
209.425000
 20
117.850000
 40
2.662500
 41
79.875000
 71
     1
 72
     5
  1
\fＭＳ ゴシック|b0|i0|c128|p49;\T1.2282;インハ　ー線防護塩ビ管VU100m/m
 44
0.908099
 73
     1
  7
BIGFONT
  0
MTEXT
  5
47a
100
AcDbEntity
  8
0
100
AcDbMText
 10
241.025000
 20
100.800000
 40
2.662500
 41
31.950000
 71
     1
 72
     5
  1
\fＭＳ ゴシック|b0|i0|c128|p49;\T1.2282;インバー線
 44
0.908099
 73
     1
  7
BIGFONT
  0
LINE
  5
47d
100
AcDbEntity
  8
0
  6
DASHDOT
 62
     7
370
    20
100
AcDbLine
 10
134.225000
 20
125.775000
 11
134.225000
 21
65.925000
  0
LINE
  5
480
100
AcDbEntity
  8
0
370
    20
100
AcDbLine
 10
101.950000
 20
106.100000
 11
109.375000
 21
102.025000
  0
LWPOLYLINE
  5
483
100
AcDbEntity
  8
0
100
AcDbPolyline
 90
     3
 70
     0
 43
0.200000
 10
107.400000
 20
102.425000
 10
109.375000
 20
102.025000
 10
107.975000
 20
103.475000
  0
LINE
  5
48c
100
AcDbEntity
  8
0
370
    20
100
AcDbLine
 10
122.100000
 20
121.800000
 11
134.150000
 21
119.225000
  0
LWPOLYLINE
  5
48f
100
AcDbEntity
  8
0
100
AcDbPolyline
 90
     3
 70
     0
 43
0.200000
 10
132.150000
 20
119.050000
 10
134.150000
 20
119.225000
 10
132.400000
 20
120.225000
  0
LINE
  5
498
100
AcDbEntity
  8
0
370
    20
100
AcDbLine
 10
76.675000
 20
93.450000
 11
86.425000
 21
86.925000
  0
LWPOLYLINE
  5
49b
100
AcDbEntity
  8
0
100
AcDbPolyline
 90
     3
 70
     0
 43
0.200000
 10
84.525000
 20
87.525000
 10
86.425000
 20
86.925000
 10
85.150000
 20
88.500000
  0
LINE
  5
4a4
100
AcDbEntity
  8
0
370
    20
100
AcDbLine
 10
165.000000
 20
121.250000
 11
158.550000
 21
113.325000
  0
LWPOLYLINE
  5
4a7
100
AcDbEntity
  8
0
100
AcDbPolyline
 90
     3
 70
     0
 43
0.200000
 10
159.275000
 20
115.200000
 10
158.550000
 20
113.325000
 10
160.200000
 20
114.425000
  0
LINE
  5
4b0
100
AcDbEntity
  8
0
370
    20
100
AcDbLine
 10
59.575000
 20
86.250000
 11
64.375000
 21
80.825000
  0
LWPOLYLINE
  5
4b3
100
AcDbEntity
  8
0
100
AcDbPolyline
 90
     3
 70
     0
 43
0.200000
 10
62.650000
 20
81.875000
 10
64.375000
 20
80.825000
 10
63.550000
 20
82.675000
  0
LINE
  5
4bc
100
AcDbEntity
  8
0
370
    20
100
AcDbLine
 10
6.875000
 20
71.675000
 11
27.500000
 21
59.800000
  0
LWPOLYLINE
  5
4bf
100
AcDbEntity
  8
0
100
AcDbPolyline
 90
     3
 70
     0
 43
0.200000
 10
25.525000
 20
60.250000
 10
27.500000
 20
59.800000
 10
26.125000
 20
61.275000
  0
LINE
  5
4c8
100
AcDbEntity
  8
0
370
    20
100
AcDbLine
 10
142.500000
 20
65.200000
 11
151.250000
 21
75.000000
  0
LWPOLYLINE
  5
4cb
100
AcDbEntity
  8
0
100
AcDbPolyline
 90
     3
 70
     0
 43
0.200000
 10
150.400000
 20
73.200000
 10
151.250000
 20
75.000000
 10
149.525000
 20
74.000000
  0
LINE
  5
4d4
100
AcDbEntity
  8
0
370
    20
100
AcDbLine
 10
232.975000
 20
83.750000
 11
227.650000
 21
83.750000
  0
LWPOLYLINE
  5
4d7
100
AcDbEntity
  8
0
100
AcDbPolyline
 90
     3
 70
     0
 43
0.200000
 10
229.550000
 20
84.375000
 10
227.650000
 20
83.750000
 10
229.550000
 20
83.150000
  0
LINE
  5
4e0
100
AcDbEntity
  8
0
370
    20
100
AcDbLine
 10
240.625000
 20
98.600000
 11
218.125000
 21
96.250000
  0
LWPOLYLINE
  5
4e3
100
AcDbEntity
  8
0
100
AcDbPolyline
 90
     3
 70
     0
 43
0.200000
 10
219.950000
 20
97.050000
 10
218.125000
 20
96.250000
 10
220.075000
 20
95.850000
  0
LINE
  5
4ec
100
AcDbEntity
  8
0
370
    20
100
AcDbLine
 10
211.400000
 20
113.900000
 11
215.950000
 21
99.525000
  0
LWPOLYLINE
  5
4ef
100
AcDbEntity
  8
0
100
AcDbPolyline
 90
     3
 70
     0
 43
0.200000
 10
214.800000
 20
101.175000
 10
215.950000
 20
99.525000
 10
215.925000
 20
101.525000
  0
LINE
  5
4f8
100
AcDbEntity
  8
0
370
    20
100
AcDbLine
 10
145.775000
 20
97.975000
 11
163.125000
 21
97.975000
  0
LINE
  5
4fb
100
AcDbEntity
  8
0
370
    20
100
AcDbLine
 10
145.775000
 20
70.150000
 11
163.125000
 21
70.150000
  0
LINE
  5
4fe
100
AcDbEntity
  8
0
370
    20
100
AcDbLine
 10
160.475000
 20
97.975000
 11
160.475000
 21
70.300000
  0
LWPOLYLINE
  5
501
100
AcDbEntity
  8
0
100
AcDbPolyline
 90
     3
 70
     0
 43
0.200000
 10
159.850000
 20
72.225000
 10
160.475000
 20
70.300000
 10
161.075000
 20
72.225000
  0
LWPOLYLINE
  5
50a
100
AcDbEntity
  8
0
100
AcDbPolyline
 90
     3
 70
     0
 43
0.200000
 10
161.075000
 20
96.075000
 10
160.475000
 20
97.975000
 10
159.850000
 20
96.075000
  0
LINE
  5
513
100
AcDbEntity
  8
0
370
    20
100
AcDbLine
 10
45.325000
 20
48.550000
 11
44.175000
 21
46.675000
  0
LINE
  5
516
100
AcDbEntity
  8
0
370
    20
100
AcDbLine
 10
46.450000
 20
48.850000
 11
45.625000
 21
47.175000
  0
LINE
  5
519
100
AcDbEntity
  8
0
370
    20
100
AcDbLine
 10
47.500000
 20
48.025000
 11
46.475000
 21
48.525000
  0
LINE
  5
51c
100
AcDbEntity
  8
0
370
    20
100
AcDbLine
 10
48.150000
 20
49.375000
 11
47.000000
 21
47.500000
  0
LINE
  5
51f
100
AcDbEntity
  8
0
370
    20
100
AcDbLine
 10
49.275000
 20
49.675000
 11
48.450000
 21
48.000000
  0
LINE
  5
522
100
AcDbEntity
  8
0
370
    20
100
AcDbLine
 10
50.325000
 20
48.850000
 11
49.300000
 21
49.350000
  0
LINE
  5
525
100
AcDbEntity
  8
0
370
    20
100
AcDbLine
 10
51.275000
 20
50.425000
 11
50.125000
 21
48.550000
  0
LINE
  5
528
100
AcDbEntity
  8
0
370
    20
100
AcDbLine
 10
52.400000
 20
50.725000
 11
51.575000
 21
49.050000
  0
LINE
  5
52b
100
AcDbEntity
  8
0
370
    20
100
AcDbLine
 10
53.450000
 20
49.900000
 11
52.425000
 21
50.400000
  0
LINE
  5
52e
100
AcDbEntity
  8
0
370
    20
100
AcDbLine
 10
141.150000
 20
93.950000
 11
140.000000
 21
92.075000
  0
LINE
  5
531
100
AcDbEntity
  8
0
370
    20
100
AcDbLine
 10
142.275000
 20
94.250000
 11
141.450000
 21
92.575000
  0
LINE
  5
534
100
AcDbEntity
  8
0
370
    20
100
AcDbLine
 10
143.325000
 20
93.425000
 11
142.300000
 21
93.925000
  0
LINE
  5
537
100
AcDbEntity
  8
0
370
    20
100
AcDbLine
 10
143.975000
 20
94.775000
 11
142.825000
 21
92.900000
  0
LINE
  5
53a
100
AcDbEntity
  8
0
370
    20
100
AcDbLine
 10
145.100000
 20
95.075000
 11
144.275000
 21
93.400000
  0
LINE
  5
53d
100
AcDbEntity
  8
0
370
    20
100
AcDbLine
 10
146.150000
 20
94.250000
 11
145.125000
 21
94.750000
  0
LINE
  5
540
100
AcDbEntity
  8
0
370
    20
100
AcDbLine
 10
147.100000
 20
95.825000
 11
145.950000
 21
93.950000
  0
LINE
  5
543
100
AcDbEntity
  8
0
370
    20
100
AcDbLine
 10
148.225000
 20
96.125000
 11
147.400000
 21
94.450000
  0
LINE
  5
546
100
AcDbEntity
  8
0
370
    20
100
AcDbLine
 10
149.275000
 20
95.300000
 11
148.250000
 21
95.800000
  0
LINE
  5
549
100
AcDbEntity
  8
0
370
    20
100
AcDbLine
 10
213.700000
 20
76.375000
 11
212.075000
 21
74.900000
  0
LINE
  5
54c
100
AcDbEntity
  8
0
370
    20
100
AcDbLine
 10
214.875000
 20
76.350000
 11
213.600000
 21
74.975000
  0
LINE
  5
54f
100
AcDbEntity
  8
0
370
    20
100
AcDbLine
 10
215.650000
 20
75.250000
 11
214.800000
 21
76.025000
  0
LINE
  5
552
100
AcDbEntity
  8
0
370
    20
100
AcDbLine
 10
216.650000
 20
76.375000
 11
215.000000
 21
74.900000
  0
LINE
  5
555
100
AcDbEntity
  8
0
370
    20
100
AcDbLine
 10
217.800000
 20
76.350000
 11
216.550000
 21
74.975000
  0
LINE
  5
558
100
AcDbEntity
  8
0
370
    20
100
AcDbLine
 10
218.575000
 20
75.250000
 11
217.750000
 21
76.025000
  0
LINE
  5
55b
100
AcDbEntity
  8
0
370
    20
100
AcDbLine
 10
219.925000
 20
76.500000
 11
218.300000
 21
75.025000
  0
LINE
  5
55e
100
AcDbEntity
  8
0
370
    20
100
AcDbLine
 10
221.100000
 20
76.450000
 11
219.825000
 21
75.100000
  0
LINE
  5
561
100
AcDbEntity
  8
0
370
    20
100
AcDbLine
 10
221.875000
 20
75.375000
 11
221.025000
 21
76.150000
  0
LINE
  5
564
100
AcDbEntity
  8
0
370
    20
100
AcDbLine
 10
100.200000
 20
73.550000
 11
99.050000
 21
71.675000
  0
LINE
  5
567
100
AcDbEntity
  8
0
370
    20
100
AcDbLine
 10
101.325000
 20
73.850000
 11
100.500000
 21
72.175000
  0
LINE
  5
56a
100
AcDbEntity
  8
0
370
    20
100
AcDbLine
 10
102.375000
 20
73.025000
 11
101.350000
 21
73.525000
  0
LINE
  5
56d
100
AcDbEntity
  8
0
370
    20
100
AcDbLine
 10
103.025000
 20
74.375000
 11
101.875000
 21
72.500000
  0
LINE
  5
570
100
AcDbEntity
  8
0
370
    20
100
AcDbLine
 10
104.150000
 20
74.675000
 11
103.325000
 21
73.000000
  0
LINE
  5
573
100
AcDbEntity
  8
0
370
    20
100
AcDbLine
 10
105.200000
 20
73.850000
 11
104.175000
 21
74.350000
  0
LINE
  5
576
100
AcDbEntity
  8
0
370
    20
100
AcDbLine
 10
106.150000
 20
75.425000
 11
105.000000
 21
73.550000
  0
LINE
  5
579
100
AcDbEntity
  8
0
370
    20
100
AcDbLine
 10
107.275000
 20
75.725000
 11
106.450000
 21
74.050000
  0
LINE
  5
57c
100
AcDbEntity
  8
0
370
    20
100
AcDbLine
 10
108.325000
 20
74.900000
 11
107.300000
 21
75.400000
  0
LWPOLYLINE
  5
57f
100
AcDbEntity
  8
0
100
AcDbPolyline
 90
     6
 70
     0
 43
0.200000
 10
90.950000
 20
100.725000
 10
89.925000
 20
98.725000
 10
90.900000
 20
96.700000
 10
89.900000
 20
94.725000
 10
90.875000
 20
92.700000
 10
89.875000
 20
90.650000
  0
LWPOLYLINE
  5
58e
100
AcDbEntity
  8
0
100
AcDbPolyline
 90
     6
 70
     0
 43
0.200000
 10
92.200000
 20
100.700000
 10
91.175000
 20
98.725000
 10
92.150000
 20
96.700000
 10
91.150000
 20
94.725000
 10
92.125000
 20
92.700000
 10
91.125000
 20
90.625000
  0
LWPOLYLINE
  5
59d
100
AcDbEntity
  8
0
100
AcDbPolyline
 90
     5
 70
     0
 43
0.200000
 10
89.875000
 20
90.650000
 10
90.875000
 20
88.650000
 10
89.850000
 20
86.650000
 10
90.825000
 20
84.650000
 10
89.825000
 20
82.650000
  0
LWPOLYLINE
  5
5aa
100
AcDbEntity
  8
0
100
AcDbPolyline
 90
     5
 70
     0
 43
0.200000
 10
91.125000
 20
90.625000
 10
92.100000
 20
88.625000
 10
91.100000
 20
86.625000
 10
92.075000
 20
84.625000
 10
91.075000
 20
82.625000
  0
LWPOLYLINE
  5
5b7
100
AcDbEntity
  8
0
100
AcDbPolyline
 90
     5
 70
     0
 43
0.200000
 10
89.900000
 20
82.625000
 10
90.875000
 20
80.625000
 10
89.875000
 20
78.625000
 10
90.850000
 20
76.625000
 10
89.825000
 20
74.625000
  0
LWPOLYLINE
  5
5c4
100
AcDbEntity
  8
0
100
AcDbPolyline
 90
     5
 70
     0
 43
0.200000
 10
91.150000
 20
82.600000
 10
92.125000
 20
80.600000
 10
91.100000
 20
78.600000
 10
92.075000
 20
76.600000
 10
91.075000
 20
74.600000
  0
LWPOLYLINE
  5
5d1
100
AcDbEntity
  8
0
100
AcDbPolyline
 90
     5
 70
     0
 43
0.200000
 10
89.850000
 20
74.650000
 10
90.825000
 20
72.650000
 10
89.825000
 20
70.650000
 10
90.800000
 20
68.650000
 10
89.775000
 20
66.650000
  0
LWPOLYLINE
  5
5de
100
AcDbEntity
  8
0
100
AcDbPolyline
 90
     5
 70
     0
 43
0.200000
 10
91.150000
 20
74.625000
 10
92.125000
 20
72.625000
 10
91.125000
 20
70.625000
 10
92.100000
 20
68.625000
 10
91.075000
 20
66.650000
  0
LWPOLYLINE
  5
5eb
100
AcDbEntity
  8
0
100
AcDbPolyline
 90
     5
 70
     0
 43
0.200000
 10
89.875000
 20
66.725000
 10
90.850000
 20
64.725000
 10
89.850000
 20
62.725000
 10
90.825000
 20
60.725000
 10
89.825000
 20
58.750000
  0
LWPOLYLINE
  5
5f8
100
AcDbEntity
  8
0
100
AcDbPolyline
 90
     5
 70
     0
 43
0.200000
 10
91.125000
 20
66.675000
 10
92.100000
 20
64.675000
 10
91.100000
 20
62.675000
 10
92.075000
 20
60.675000
 10
91.075000
 20
58.675000
  0
LWPOLYLINE
  5
605
100
AcDbEntity
  8
0
100
AcDbPolyline
 90
     5
 70
     0
 43
0.200000
 10
91.050000
 20
58.700000
 10
92.025000
 20
56.700000
 10
91.025000
 20
54.725000
 10
92.000000
 20
52.700000
 10
91.000000
 20
50.725000
  0
LWPOLYLINE
  5
612
100
AcDbEntity
  8
0
100
AcDbPolyline
 90
     5
 70
     0
 43
0.200000
 10
89.825000
 20
58.825000
 10
90.800000
 20
56.800000
 10
89.800000
 20
54.825000
 10
90.775000
 20
52.800000
 10
89.750000
 20
50.825000
  0
LWPOLYLINE
  5
61f
100
AcDbEntity
  8
0
100
AcDbPolyline
 90
     5
 70
     0
 43
0.200000
 10
89.825000
 20
50.700000
 10
90.800000
 20
48.675000
 10
89.800000
 20
46.700000
 10
90.775000
 20
44.675000
 10
89.750000
 20
42.700000
  0
LWPOLYLINE
  5
62c
100
AcDbEntity
  8
0
100
AcDbPolyline
 90
     5
 70
     0
 43
0.200000
 10
91.075000
 20
50.700000
 10
92.050000
 20
48.675000
 10
91.050000
 20
46.700000
 10
92.025000
 20
44.675000
 10
91.000000
 20
42.700000
  0
LWPOLYLINE
  5
639
100
AcDbEntity
  8
0
100
AcDbPolyline
 90
     5
 70
     0
 43
0.200000
 10
89.825000
 20
42.575000
 10
90.800000
 20
40.550000
 10
89.800000
 20
38.575000
 10
90.775000
 20
36.550000
 10
89.750000
 20
34.575000
  0
LWPOLYLINE
  5
646
100
AcDbEntity
  8
0
100
AcDbPolyline
 90
     5
 70
     0
 43
0.200000
 10
91.075000
 20
42.575000
 10
92.050000
 20
40.550000
 10
91.050000
 20
38.575000
 10
92.025000
 20
36.550000
 10
91.000000
 20
34.575000
  0
LWPOLYLINE
  5
653
100
AcDbEntity
  8
0
100
AcDbPolyline
 90
     4
 70
     0
 43
0.800000
 10
104.700000
 20
48.975000
 10
101.575000
 20
47.600000
 10
96.450000
 20
45.525000
 10
91.250000
 20
43.325000
  0
LINE
  5
65e
100
AcDbEntity
  8
0
370
    20
100
AcDbLine
 10
83.750000
 20
143.125000
 11
186.250000
 21
143.125000
  0
LINE
  5
661
100
AcDbEntity
  8
0
370
    20
100
AcDbLine
 10
83.750000
 20
142.175000
 11
186.250000
 21
142.175000
  0
LINE
  5
664
100
AcDbEntity
  8
0
370
    20
100
AcDbLine
 10
204.375000
 20
92.800000
 11
204.375000
 21
107.175000
  0
LINE
  5
667
100
AcDbEntity
  8
0
370
    20
100
AcDbLine
 10
230.100000
 20
92.800000
 11
230.100000
 21
107.175000
  0
LINE
  5
66a
100
AcDbEntity
  8
0
370
    20
100
AcDbLine
 10
204.375000
 20
105.200000
 11
230.100000
 21
105.200000
  0
LWPOLYLINE
  5
66d
100
AcDbEntity
  8
0
100
AcDbPolyline
 90
     3
 70
     0
 43
0.200000
 10
206.275000
 20
105.825000
 10
204.375000
 20
105.200000
 10
206.275000
 20
104.600000
  0
LWPOLYLINE
  5
676
100
AcDbEntity
  8
0
100
AcDbPolyline
 90
     3
 70
     0
 43
0.200000
 10
228.175000
 20
104.600000
 10
230.100000
 20
105.200000
 10
228.175000
 20
105.825000
  0
MTEXT
  5
67f
100
AcDbEntity
  8
0
100
AcDbMText
 10
217.025000
 20
108.575000
 40
2.850000
 41
10.260000
 71
     1
 72
     5
  1
\fＭＳ ゴシック|b0|i0|c128|p49;\H2.85;\T0.9100;60c\T0.9656;m
 44
0.747801
 73
     1
  7
BIGFONT
  0
MTEXT
  5
682
100
AcDbEntity
  8
0
100
AcDbMText
 10
140.150000
 20
60.050000
 40
2.662500
 41
19.170000
 71
     1
 72
     5
  1
\fＭＳ ゴシック|b0|i0|c128|p49;\T1.2282;材料Ａ
 44
0.908099
 73
     1
  7
BIGFONT
  0
MTEXT
  5
685
100
AcDbEntity
  8
0
100
AcDbMText
 10
4.975000
 20
80.850000
 40
2.662500
 41
19.170000
 71
     1
 72
     5
  1
\fＭＳ ゴシック|b0|i0|c128|p49;\T1.2282;材料Ｂ
 44
0.908099
 73
     1
  7
BIGFONT
  0
MTEXT
  5
688
100
AcDbEntity
  8
0
100
AcDbMText
 10
9.750000
 20
93.050000
 40
2.662500
 41
19.170000
 71
     1
 72
     5
  1
\fＭＳ ゴシック|b0|i0|c128|p49;\T1.2282;材料ａ
 44
0.908099
 73
     1
  7
BIGFONT
  0
MTEXT
  5
68b
100
AcDbEntity
  8
0
100
AcDbMText
 10
76.425000
 20
73.900000
 40
2.662500
 41
19.170000
 71
     1
 72
     5
  1
\fＭＳ ゴシック|b0|i0|c128|p49;\T1.2282;材料ｅ
 44
0.908099
 73
     1
  7
BIGFONT
  0
MTEXT
  5
68e
100
AcDbEntity
  8
0
100
AcDbMText
 10
44.775000
 20
61.400000
 40
2.662500
 41
38.340000
 71
     1
 72
     5
  1
\fＭＳ ゴシック|b0|i0|c128|p49;\T0.9159;材料\T0.7500;ｂ\T0.7500;,ｃ,\T1.0153;ｄ
 44
0.908099
 73
     1
  7
BIGFONT
  0
MTEXT
  5
691
100
AcDbEntity
  8
0
100
AcDbMText
 10
71.000000
 20
113.475000
 40
2.662500
 41
19.170000
 71
     1
 72
     5
  1
\fＭＳ ゴシック|b0|i0|c128|p49;\T1.2282;材料ｆ
 44
0.908099
 73
     1
  7
BIGFONT
  0
MTEXT
  5
694
100
AcDbEntity
  8
0
100
AcDbMText
 10
191.425000
 20
87.225000
 40
2.662500
 41
19.170000
 71
     1
 72
     5
  1
\fＭＳ ゴシック|b0|i0|c128|p49;\T1.2282;材料ｇ
 44
0.908099
 73
     1
  7
BIGFONT
  0
MTEXT
  5
697
100
AcDbEntity
  8
0
100
AcDbMText
 10
233.500000
 20
90.975000
 40
2.662500
 41
19.170000
 71
     1
 72
     5
  1
\fＭＳ ゴシック|b0|i0|c128|p49;\T1.2282;材料ｆ
 44
0.908099
 73
     1
  7
BIGFONT
  0
LINE
  5
69a
100
AcDbEntity
  8
0
370
    20
100
AcDbLine
 10
46.450000
 20
62.075000
 11
45.425000
 21
65.825000
  0
LWPOLYLINE
  5
69d
100
AcDbEntity
  8
0
100
AcDbPolyline
 90
     3
 70
     0
 43
0.200000
 10
46.475000
 20
64.150000
 10
45.425000
 20
65.825000
 10
45.300000
 20
63.850000
  0
LINE
  5
6a6
100
AcDbEntity
  8
0
370
    20
100
AcDbLine
 10
76.050000
 20
72.300000
 11
75.200000
 21
77.700000
  0
LWPOLYLINE
  5
6a9
100
AcDbEntity
  8
0
100
AcDbPolyline
 90
     3
 70
     0
 43
0.200000
 10
76.100000
 20
75.925000
 10
75.200000
 20
77.700000
 10
74.900000
 20
75.725000
  0
LINE
  5
6b2
100
AcDbEntity
  8
0
370
    20
100
AcDbLine
 10
202.500000
 20
85.625000
 11
205.200000
 21
90.625000
  0
LWPOLYLINE
  5
6b5
100
AcDbEntity
  8
0
100
AcDbPolyline
 90
     3
 70
     0
 43
0.200000
 10
204.825000
 20
88.675000
 10
205.200000
 20
90.625000
 10
203.750000
 20
89.250000
  0
ENDSEC
  0
SECTION
  2
OBJECTS
  0
DICTIONARY
  5
6c6
100
AcDbDictionary
281
     1
  3
ACAD_COLOR
350
6c7
  3
ACAD_GROUP
350
6c8
  3
ACAD_LAYOUT
350
6c9
  3
ACAD_MATERIAL
350
6ca
  3
ACAD_MLINESTYLE
350
6cb
  3
CONTENTDICTIONARY
350
6d1
  0
DICTIONARY
  5
6c7
102
{ACAD_REACTORS
330
6c6
102
}
330
6c6
100
AcDbDictionary
281
     1
  0
DICTIONARY
  5
6c8
102
{ACAD_REACTORS
330
6c6
102
}
330
6c6
100
AcDbDictionary
281
     1
  3
Layout1
350
6d2
  3
Layout2
350
6d3
  3
Model
350
716
  0
DICTIONARY
  5
6c9
102
{ACAD_REACTORS
330
6c6
102
}
330
6c6
100
AcDbDictionary
281
     1
  0
DICTIONARY
  5
6ca
102
{ACAD_REACTORS
330
6c6
102
}
330
6c6
100
AcDbDictionary
281
     1
  0
DICTIONARY
  5
6cb
102
{ACAD_REACTORS
330
6c6
102
}
330
6c6
100
AcDbDictionary
281
     1
  3
Standard
350
6d4
  0
DICTIONARY
  5
6cc
102
{ACAD_REACTORS
330
6c6
102
}
330
6c6
100
AcDbDictionary
281
     1
  0
ACDBDICTIONARYWDFLT
  5
6cd
102
{ACAD_REACTORS
330
6c6
102
}
330
6c6
100
AcDbDictionary
281
     1
  3
Normal
350
717
100
AcDbDictionaryWithDefault
340
717
  0
DICTIONARY
  5
6ce
102
{ACAD_REACTORS
330
6c6
102
}
330
6c6
100
AcDbDictionary
281
     1
  3
Standard
350
718
  0
DICTIONARY
  5
6cf
102
{ACAD_REACTORS
330
6c6
102
}
330
6c6
100
AcDbDictionary
281
     1
  3
CEPSNTYPE
350
6d6
  3
FINGERPRINTGUID
350
6d7
  3
HYPERLINKBASE
350
6d8
  3
INSUNITS
350
6d9
  3
LAYOUTDICT
350
6da
  3
LWETCUNION
350
6db
  3
PLOTSETDICT
350
6dc
  3
PLOTSTYLNAMDICT
350
6dd
  3
PSVPSCALE
350
6de
  3
PUCSBASE
350
6df
  3
PUCSORGBACK
350
6e0
  3
PUCSORGBOTTOM
350
6e1
  3
PUCSORGFRONT
350
6e2
  3
PUCSORGLEFT
350
6e3
  3
PUCSORGRIGHT
350
6e4
  3
PUCSORGTOP
350
6e5
  3
PUCSORTHOREF
350
6e6
  3
PUCSORTHOVIEW
350
6e7
  3
STYLESHEET
350
6e8
  3
TSTACKALIGN
350
6e9
  3
TSTACKSIZE
350
6ea
  3
UCSBASE
350
6eb
  3
UCSORGBACK
350
6ec
  3
UCSORGBOTTOM
350
6ed
  3
UCSORGFRONT
350
6ee
  3
UCSORGLEFT
350
6ef
  3
UCSORGRIGHT
350
6f0
  3
UCSORGTOP
350
6f1
  3
UCSORTHOREF
350
6f2
  3
UCSORTHOVIEW
350
6f3
  3
VERSIONGUID
350
6f4
  0
DICTIONARY
  5
6d0
102
{ACAD_REACTORS
330
6c6
102
}
330
6c6
100
AcDbDictionary
281
     1
  3
CTABLESTYLE
350
6f5
  3
DIMASSOC
350
6f6
  3
HIDETEXT
350
6f7
  3
PROJECTNAME
350
6f8
  0
LAYOUT
  5
6d1
102
{ACAD_XDICTIONARY
360
9dc
102
}
102
{ACAD_REACTORS
330
6c7
102
}
330
6c7
100
AcDbPlotSettings
  1

  2

  4

  6

 40
0.000000
 41
0.000000
 42
0.000000
 43
0.000000
 44
0.000000
 45
0.000000
 46
0.000000
 47
0.000000
 48
0.000000
 49
0.000000
140
0.000000
141
0.000000
142
1.000000
143
1.000000
 70
   688
 72
     0
 73
     0
 74
     5
  7

 75
    16
147
1.000000
148
0.000000
149
0.000000
100
AcDbLayout
  1
Layout1
 70
     1
 71
     1
 10
0.000000
 20
0.000000
 11
272.000000
 21
165.000000
 12
0.000000
 22
0.000000
 32
0.000000
 14
100000000000000000000.000000
 24
100000000000000000000.000000
 34
100000000000000000000.000000
 15
-100000000000000000000.000000
 25
-100000000000000000000.000000
 35
-100000000000000000000.000000
146
0.000000
 13
0.000000
 23
0.000000
 33
0.000000
 16
1.000000
 26
0.000000
 36
0.000000
 17
0.000000
 27
1.000000
 37
0.000000
 76
     0
330
6cb
  0
LAYOUT
  5
6d2
102
{ACAD_XDICTIONARY
360
9de
102
}
102
{ACAD_REACTORS
330
6c7
102
}
330
6c7
100
AcDbPlotSettings
  1

  2

  4

  6

 40
0.000000
 41
0.000000
 42
0.000000
 43
0.000000
 44
0.000000
 45
0.000000
 46
0.000000
 47
0.000000
 48
0.000000
 49
0.000000
140
0.000000
141
0.000000
142
1.000000
143
1.000000
 70
   688
 72
     0
 73
     0
 74
     5
  7

 75
    16
147
1.000000
148
0.000000
149
0.000000
100
AcDbLayout
  1
Layout2
 70
     1
 71
     2
 10
0.000000
 20
0.000000
 11
272.000000
 21
165.000000
 12
0.000000
 22
0.000000
 32
0.000000
 14
0.000000
 24
0.000000
 34
0.000000
 15
0.000000
 25
0.000000
 35
0.000000
146
0.000000
 13
0.000000
 23
0.000000
 33
0.000000
 16
1.000000
 26
0.000000
 36
0.000000
 17
0.000000
 27
1.000000
 37
0.000000
 76
     0
330
6d2
  0
LAYOUT
  5
6d3
102
{ACAD_XDICTIONARY
360
9e0
102
}
102
{ACAD_REACTORS
330
6c7
102
}
330
6c7
100
AcDbPlotSettings
  1

  2

  4

  6

 40
0.000000
 41
0.000000
 42
0.000000
 43
0.000000
 44
0.000000
 45
0.000000
 46
0.000000
 47
0.000000
 48
0.000000
 49
0.000000
140
0.000000
141
0.000000
142
1.000000
143
1.000000
 70
  1712
 72
     0
 73
     0
 74
     0
  7

 75
    16
147
1.000000
148
0.000000
149
0.000000
100
AcDbLayout
  1
Model
 70
     1
 71
     0
 10
0.000000
 20
0.000000
 11
272.000000
 21
165.000000
 12
0.000000
 22
0.000000
 32
0.000000
 14
0.000000
 24
0.000000
 34
0.000000
 15
0.000000
 25
0.000000
 35
0.000000
146
0.000000
 13
0.000000
 23
0.000000
 33
0.000000
 16
1.000000
 26
0.000000
 36
0.000000
 17
0.000000
 27
1.000000
 37
0.000000
 76
     0
330
6d3
  0
MLINESTYLE
  5
6d4
102
{ACAD_REACTORS
330
6d3
102
}
330
6d3
100
AcDbMlineStyle
  2
STANDARD
 70
     0
  3
 
 62
   256
 51
90.000000
 52
90.000000
 71
     2
 49
0.500000
 62
   256
  6
BYLAYER
 49
-0.500000
 62
   256
  6
BYLAYER
  0
ACDBPLACEHOLDER
  5
6d5
102
{ACAD_REACTORS
330
6d4
102
}
330
6d4
  0
DICTIONARY
  5
9dc
100
AcDbDictionary
280
     1
281
     1
  3
ACAD_XREC_ROUNDTRIP
360
9dd
  0
DICTIONARY
  5
9de
100
AcDbDictionary
280
     1
281
     1
  3
ACAD_XREC_ROUNDTRIP
360
9df
  0
DICTIONARY
  5
9e0
100
AcDbDictionary
280
     1
281
     1
  3
ACAD_XREC_ROUNDTRIP
360
9e1
  0
XRECORD
  5
9dd
102
{ACAD_REACTORS
330
9dc
102
}
330
9dc
100
AcDbXrecord
280
     1
102
SHADEPLOT
 70
     0
102
SHADEPLOTRESLEVEL
 70
     2
102
SHADEPLOTCUSTOMDPI
 70
   300
  0
XRECORD
  5
9df
102
{ACAD_REACTORS
330
9de
102
}
330
9de
100
AcDbXrecord
280
     1
102
SHADEPLOT
 70
     0
102
SHADEPLOTRESLEVEL
 70
     2
102
SHADEPLOTCUSTOMDPI
 70
   300
  0
XRECORD
  5
9e1
102
{ACAD_REACTORS
330
9e0
102
}
330
9e0
100
AcDbXrecord
280
     1
102
SHADEPLOT
 70
     0
102
SHADEPLOTRESLEVEL
 70
     2
102
SHADEPLOTCUSTOMDPI
 70
   300
  0
ENDSEC
  0
EOF
